  0
SECTION
  2
HEADER
  9
$ACADVER
  1
AC1014
  9
$ACADMAINTVER
 70
     0
  9
$DWGCODEPAGE
  3
DOS932
  9
$INSBASE
 10
0.0
 20
0.0
 30
0.0
  9
$EXTMIN
 10
18.3
 20
13.5
 30
0.0
  9
$EXTMAX
 10
576.0
 20
407.965
 30
0.0
  9
$LIMMIN
 10
0.0
 20
0.0
  9
$LIMMAX
 10
594.0
 20
420.0
  9
$ORTHOMODE
 70
     0
  9
$REGENMODE
 70
     1
  9
$FILLMODE
 70
     1
  9
$QTEXTMODE
 70
     0
  9
$MIRRTEXT
 70
     1
  9
$DRAGMODE
 70
     2
  9
$LTSCALE
 40
1.0
  9
$OSMODE
 70
     0
  9
$ATTMODE
 70
     1
  9
$TEXTSIZE
 40
0.2
  9
$TRACEWID
 40
0.05
  9
$TEXTSTYLE
  7
STANDARD
  9
$CLAYER
  8
図面枠・表題欄
  9
$CELTYPE
  6
CONTINUOUS
  9
$CECOLOR
 62
   256
  9
$CELTSCALE
 40
1.0
  9
$DELOBJ
 70
     1
  9
$DISPSILH
 70
     0
  9
$DIMSCALE
 40
1.0
  9
$DIMASZ
 40
0.18
  9
$DIMEXO
 40
0.0625
  9
$DIMDLI
 40
0.38
  9
$DIMRND
 40
0.0
  9
$DIMDLE
 40
0.0
  9
$DIMEXE
 40
0.18
  9
$DIMTP
 40
0.0
  9
$DIMTM
 40
0.0
  9
$DIMTXT
 40
0.18
  9
$DIMCEN
 40
0.09
  9
$DIMTSZ
 40
0.0
  9
$DIMTOL
 70
     0
  9
$DIMLIM
 70
     0
  9
$DIMTIH
 70
     1
  9
$DIMTOH
 70
     1
  9
$DIMSE1
 70
     0
  9
$DIMSE2
 70
     0
  9
$DIMTAD
 70
     0
  9
$DIMZIN
 70
     0
  9
$DIMBLK
  1

  9
$DIMASO
 70
     1
  9
$DIMSHO
 70
     1
  9
$DIMPOST
  1

  9
$DIMAPOST
  1

  9
$DIMALT
 70
     0
  9
$DIMALTD
 70
     2
  9
$DIMALTF
 40
25.4
  9
$DIMLFAC
 40
1.0
  9
$DIMTOFL
 70
     0
  9
$DIMTVP
 40
0.0
  9
$DIMTIX
 70
     0
  9
$DIMSOXD
 70
     0
  9
$DIMSAH
 70
     0
  9
$DIMBLK1
  1

  9
$DIMBLK2
  1

  9
$DIMSTYLE
  2
STANDARD
  9
$DIMCLRD
 70
     0
  9
$DIMCLRE
 70
     0
  9
$DIMCLRT
 70
     0
  9
$DIMTFAC
 40
1.0
  9
$DIMGAP
 40
0.09
  9
$DIMJUST
 70
     0
  9
$DIMSD1
 70
     0
  9
$DIMSD2
 70
     0
  9
$DIMTOLJ
 70
     1
  9
$DIMTZIN
 70
     0
  9
$DIMALTZ
 70
     0
  9
$DIMALTTZ
 70
     0
  9
$DIMFIT
 70
     3
  9
$DIMUPT
 70
     0
  9
$DIMUNIT
 70
     2
  9
$DIMDEC
 70
     4
  9
$DIMTDEC
 70
     4
  9
$DIMALTU
 70
     2
  9
$DIMALTTD
 70
     2
  9
$DIMTXSTY
  7
STANDARD
  9
$DIMAUNIT
 70
     0
  9
$LUNITS
 70
     2
  9
$LUPREC
 70
     4
  9
$SKETCHINC
 40
0.1
  9
$FILLETRAD
 40
0.0
  9
$AUNITS
 70
     0
  9
$AUPREC
 70
     0
  9
$MENU
  1
acad
  9
$ELEVATION
 40
0.0
  9
$PELEVATION
 40
0.0
  9
$THICKNESS
 40
0.0
  9
$LIMCHECK
 70
     0
  9
$BLIPMODE
 70
     1
  9
$CHAMFERA
 40
0.0
  9
$CHAMFERB
 40
0.0
  9
$CHAMFERC
 40
0.0
  9
$CHAMFERD
 40
0.0
  9
$SKPOLY
 70
     0
  9
$TDCREATE
 40
2457050.317477616
  9
$TDUPDATE
 40
2457050.317477616
  9
$TDINDWG
 40
0.0000000000
  9
$TDUSRTIMER
 40
0.0000000000
  9
$USRTIMER
 70
     1
  9
$ANGBASE
 50
0.0
  9
$ANGDIR
 70
     0
  9
$PDMODE
 70
     0
  9
$PDSIZE
 40
0.0
  9
$PLINEWID
 40
0.0
  9
$COORDS
 70
     1
  9
$SPLFRAME
 70
     0
  9
$SPLINETYPE
 70
     6
  9
$SPLINESEGS
 70
     8
  9
$ATTDIA
 70
     0
  9
$ATTREQ
 70
     1
  9
$HANDLING
 70
     1
  9
$HANDSEED
  5
6D2
  9
$SURFTAB1
 70
     6
  9
$SURFTAB2
 70
     6
  9
$SURFTYPE
 70
     6
  9
$SURFU
 70
     6
  9
$SURFV
 70
     6
  9
$UCSNAME
  2

  9
$UCSORG
 10
0.0
 20
0.0
 30
0.0
  9
$UCSXDIR
 10
1.0
 20
0.0
 30
0.0
  9
$UCSYDIR
 10
0.0
 20
1.0
 30
0.0
  9
$PUCSNAME
  2

  9
$PUCSORG
 10
0.0
 20
0.0
 30
0.0
  9
$PUCSXDIR
 10
1.0
 20
0.0
 30
0.0
  9
$PUCSYDIR
 10
0.0
 20
1.0
 30
0.0
  9
$USERI1
 70
     0
  9
$USERI2
 70
     0
  9
$USERI3
 70
     0
  9
$USERI4
 70
     0
  9
$USERI5
 70
     0
  9
$USERR1
 40
0.0
  9
$USERR2
 40
0.0
  9
$USERR3
 40
0.0
  9
$USERR4
 40
0.0
  9
$USERR5
 40
0.0
  9
$WORLDVIEW
 70
     1
  9
$SHADEDGE
 70
     3
  9
$SHADEDIF
 70
    70
  9
$TILEMODE
 70
     1
  9
$MAXACTVP
 70
    16
  9
$PINSBASE
 10
0.0
 20
0.0
 30
0.0
  9
$PLIMCHECK
 70
     0
  9
$PEXTMIN
 10
1.000000E+20
 20
1.000000E+20
 30
1.000000E+20
  9
$PEXTMAX
 10
-1.000000E+20
 20
-1.000000E+20
 30
-1.000000E+20
  9
$PLIMMIN
 10
0.0
 20
0.0
  9
$PLIMMAX
 10
12.0
 20
9.0
  9
$UNITMODE
 70
     0
  9
$VISRETAIN
 70
     0
  9
$PLINEGEN
 70
     1
  9
$PSLTSCALE
 70
     0
  9
$TREEDEPTH
 70
  3020
  9
$PICKSTYLE
 70
     1
  9
$CMLSTYLE
  2
Standard
  9
$CMLJUST
 70
     0
  9
$CMLSCALE
 40
1.0
  9
$PROXYGRAPHICS
 70
     0
  9
$MEASUREMENT
 70
     0
  0
ENDSEC
  0
SECTION
  2
CLASSES
  0
CLASS
  1
LWPOLYLINE
  2
AcDbPolyline
  3
"AutoCAD"
 90
        0
280
     0
281
     1
  0
CLASS
  1
IMAGE
  2
AcDbRasterImage
  3
ISM
 90
      127
280
     0
281
     1
  0
CLASS
  1
OLE2FRAME
  2
AcDbOle2Frame
  3
""
 90
        0
280
     0
281
     1
  0
CLASS
  1
HATCH
  2
AcDbHatch
  3
"ACAD_SEDONA"
 90
        0
280
     0
281
     1
  0
CLASS
  1
DICTIONARYVAR
  2
AcDbDictionaryVar
  3
"AutoCAD"
 90
        0
280
     0
281
     0
  0
CLASS
  1
RASTERVARIABLES
  2
AcDbRasterVariables
  3
ISM
 90
        0
280
     0
281
     0
  0
CLASS
  1
IMAGEDEF
  2
AcDbRasterImageDef
  3
ISM
 90
        0
280
     0
281
     0
  0
CLASS
  1
IMAGEDEF_REACTOR
  2
AcDbRasterImageDefReactor
  3
ISM
 90
        1
280
     0
281
     0
  0
CLASS
  1
IDBUFFER
  2
AcDbIdBuffer
  3
"Acad"
 90
        0
280
     0
281
     0
  0
CLASS
  1
SPATIAL_FILTER
  2
AcDbSpatialFilter
  3
"Acad"
 90
        0
280
     0
281
     0
  0
CLASS
  1
XRECORD
  2
AcDbXrecord
  3
"<Built In>"
 90
        0
280
     0
281
     0
  0
CLASS
  1
SORTENTSTABLE
  2
AcDbSortentsTable
  3
"AutoCAD"
 90
        0
280
     0
281
     0
  0
CLASS
  1
LAYER_INDEX
  2
AcDbLayerIndex
  3
"Acad"
 90
        0
280
     0
281
     0
  0
CLASS
  1
SPATIAL_INDEX
  2
AcDbSpatialIndex
  3
"Acad"
 90
        0
280
     0
281
     0
  0
CLASS
  1
OBJECT_PTR
  2
CAseDLPNTableRecord
  3
"ASE-LPNTableRecord"
 90
        1
280
     0
281
     0
  0
CLASS
  1
LAYOUT
  2
AcDbLayout
  3
"AutoCAD 2000"
 90
        1
280
     0
281
     0
  0
CLASS
  1
PLOTSETTINGS
  2
AcDbPlotSettings
  3
"AutoCAD 2000"
 90
        1
280
     0
281
     0
  0
CLASS
  1
ACDBDICTIONARYWDFLT
  2
AcDbDictionaryWithDefault
  3
"AutoCAD 2000"
 90
        1
280
     0
281
     0
  0
CLASS
  1
ACDBPLACEHOLDER
  2
AcDbPlaceHolder
  3
"AutoCAD 2000"
 90
        1
280
     0
281
     0
  0
CLASS
  1
VBA_PROJECT
  2
AcDbVbaProject
  3
"acadvba"
 90
        1
280
     0
281
     0
  0
CLASS
  1
WIPEOUT
  2
AcDbWipeout
  3
WipeOut|AutoCAD Express Tool|expresstools@autodesk.com
 90
      127
280
     0
281
     1
  0
CLASS
  1
WIPEOUTVARIABLES
  2
AcDbWipeoutVariables
  3
WipeOut|AutoCAD Express Tool|expresstools@autodesk.com
 90
        0
280
     0
281
     0
  0
CLASS
  1
RTEXT
  2
RText
  3
RText|AutoCAD Express Tool|expresstools@autodesk.com
 90
        0
280
     0
281
     1
  0
CLASS
  1
ARCALIGNEDTEXT
  2
AcDbArcAlignedText
  3
ATEXT|AutoCAD Express Tool|expresstools@autodesk.com
 90
        0
280
     0
281
     1
  0
ENDSEC
  0
SECTION
  2
TABLES
  0
TABLE
  2
VPORT
  5
7
100
AcDbSymbolTable
 70
     1
  0
VPORT
  5
15
100
AcDbSymbolTableRecord
100
AcDbViewportTableRecord
  2
*ACTIVE
 70
     0
 10
0.0
 20
0.0
 11
1.0
 21
1.0
 12
1485.75
 22
1053.6625
 13
0.0
 23
0.0
 14
1.0
 24
1.0
 15
0.0
 25
0.0
 16
0.0
 26
0.0
 36
1.0
 17
0.0
 27
0.0
 37
0.0
 40
1972.325
 41
1.722533
 42
50.0
 43
0.0
 44
0.0
 50
0.0
 51
0.0
 71
     0
 72
   100
 73
     1
 74
     1
 75
     0
 76
     0
 77
     0
 78
     0
  0
ENDTAB
  0
TABLE
  2
LTYPE
  5
4
100
AcDbSymbolTable
 70
     6
  0
LTYPE
  5
11
100
AcDbSymbolTableRecord
100
AcDbLinetypeTableRecord
  2
BYBLOCK
 70
    64
  3

 72
    65
 73
     0
 40
0.0
  0
LTYPE
  5
12
100
AcDbSymbolTableRecord
100
AcDbLinetypeTableRecord
  2
BYLAYER
 70
    64
  3

 72
    65
 73
     0
 40
0.0
  0
LTYPE
  5
13
100
AcDbSymbolTableRecord
100
AcDbLinetypeTableRecord
  2
CONTINUOUS
 70
    64
  3
実線
 72
    65
 73
     0
 40
0.0
  0
LTYPE
  5
1D
100
AcDbSymbolTableRecord
100
AcDbLinetypeTableRecord
  2
EXLTYPE1
 70
    64
  3
一点鎖線
 72
    65
 73
     4
 40
13.28
 49
9.98
 74
     0
 49
-1.1
 74
     0
 49
1.1
 74
     0
 49
-1.1
 74
     0
  0
LTYPE
  5
1E
100
AcDbSymbolTableRecord
100
AcDbLinetypeTableRecord
  2
EXLTYPE2
 70
    64
  3
破線
 72
    65
 73
     2
 40
2.0
 49
1.0
 74
     0
 49
-1.0
 74
     0
  0
LTYPE
  5
1F
100
AcDbSymbolTableRecord
100
AcDbLinetypeTableRecord
  2
EXLTYPE3
 70
    64
  3
点線
 72
    65
 73
     2
 40
2.0
 49
1.0
 74
     0
 49
-1.0
 74
     0
  0
ENDTAB
  0
TABLE
  2
LAYER
  5
2
100
AcDbSymbolTable
 70
     3
  0
LAYER
  5
14
100
AcDbSymbolTableRecord
100
AcDbLayerTableRecord
  2
0
 70
     0
 62
     7
  6
CONTINUOUS
  0
LAYER
  5
22
100
AcDbSymbolTableRecord
100
AcDbLayerTableRecord
  2
図面枠・表題欄
 70
    64
 62
     7
  6
CONTINUOUS
  0
LAYER
  5
23
100
AcDbSymbolTableRecord
100
AcDbLayerTableRecord
  2
外形図
 70
    64
 62
     7
  6
CONTINUOUS
  0
ENDTAB
  0
TABLE
  2
STYLE
  5
3
100
AcDbSymbolTable
 70
     4
  0
STYLE
  5
17
100
AcDbSymbolTableRecord
100
AcDbTextStyleTableRecord
  2
STANDARD
 70
     0
 40
0.0
 41
1.0
 50
0.0
 71
     0
 42
0.0
  3
monotxt
  4
extfont
  0
STYLE
  5
20
100
AcDbSymbolTableRecord
100
AcDbTextStyleTableRecord
  2
EXCADSTD
 70
    64
 40
0.0
 41
1.0
 50
0.0
 71
     0
 42
0.2
  3
monotxt
  4
extfont
  0
STYLE
  5
21
100
AcDbSymbolTableRecord
100
AcDbTextStyleTableRecord
  2
EXCADVERT
 70
    68
 40
0.0
 41
1.0
 50
0.0
 71
     0
 42
0.286885
  3
monotxt
  4
extfont
  0
STYLE
  5
352
100
AcDbSymbolTableRecord
100
AcDbTextStyleTableRecord
  2
EXCADTTF1
 70
    64
 40
0.0
 41
1.0
 50
0.0
 71
     0
 42
0.2
  3
MS Gothic.ttf
  4

1001
ACAD
1000
MS Gothic
1071
    32817
  0
ENDTAB
  0
TABLE
  2
VIEW
  5
5
100
AcDbSymbolTable
 70
     0
  0
ENDTAB
  0
TABLE
  2
UCS
  5
6
100
AcDbSymbolTable
 70
     0
  0
ENDTAB
  0
TABLE
  2
APPID
  5
8
100
AcDbSymbolTable
 70
     1
  0
APPID
  5
16
100
AcDbSymbolTableRecord
100
AcDbRegAppTableRecord
  2
ACAD
 70
     0
  0
ENDTAB
  0
TABLE
  2
DIMSTYLE
  5
9
100
AcDbSymbolTable
 70
     1
  0
DIMSTYLE
105
18
100
AcDbSymbolTableRecord
100
AcDbDimStyleTableRecord
  2
STANDARD
 70
     0
  3

  4

  5

  6

  7

 40
1.0
 41
0.18
 42
0.0625
 43
0.38
 44
0.18
 45
0.0
 46
0.0
 47
0.0
 48
0.0
 71
     0
 72
     0
 73
     1
 74
     1
 75
     0
 76
     0
 77
     0
 78
     0
140
0.18
141
0.09
142
0.0
143
25.4
144
1.0
145
0.0
146
1.0
147
0.09
170
     0
171
     2
172
     0
173
     0
174
     0
175
     0
176
     0
177
     0
178
     0
270
     2
271
     4
272
     4
273
     2
274
     2
275
     0
280
     0
281
     0
282
     0
283
     1
284
     0
285
     0
286
     0
287
     0
288
     0
340
17
  0
ENDTAB
  0
TABLE
  2
BLOCK_RECORD
  5
1
100
AcDbSymbolTable
 70
    14
  0
BLOCK_RECORD
  5
A
100
AcDbSymbolTableRecord
100
AcDbBlockTableRecord
  2
*MODEL_SPACE
  0
BLOCK_RECORD
  5
B
100
AcDbSymbolTableRecord
100
AcDbBlockTableRecord
  2
*PAPER_SPACE
  0
BLOCK_RECORD
  5
24
100
AcDbSymbolTableRecord
100
AcDbBlockTableRecord
  2
_EX_NORM
  0
BLOCK_RECORD
  5
25
100
AcDbSymbolTableRecord
100
AcDbBlockTableRecord
  2
_EX_BNORM
  0
BLOCK_RECORD
  5
26
100
AcDbSymbolTableRecord
100
AcDbBlockTableRecord
  2
_EX_BCIR
  0
BLOCK_RECORD
  5
27
100
AcDbSymbolTableRecord
100
AcDbBlockTableRecord
  2
_EX_RCIVIL
  0
BLOCK_RECORD
  5
28
100
AcDbSymbolTableRecord
100
AcDbBlockTableRecord
  2
_EX_SLANT
  0
BLOCK_RECORD
  5
29
100
AcDbSymbolTableRecord
100
AcDbBlockTableRecord
  2
_EX_NONE
  0
BLOCK_RECORD
  5
2A
100
AcDbSymbolTableRecord
100
AcDbBlockTableRecord
  2
_EX_CIVIL
  0
BLOCK_RECORD
  5
2B
100
AcDbSymbolTableRecord
100
AcDbBlockTableRecord
  2
_EX_WCIR
  0
BLOCK_RECORD
  5
2C
100
AcDbSymbolTableRecord
100
AcDbBlockTableRecord
  2
_EX_WCIR2
  0
BLOCK_RECORD
  5
2D
100
AcDbSymbolTableRecord
100
AcDbBlockTableRecord
  2
_EX_WNORM
  0
BLOCK_RECORD
  5
2E
100
AcDbSymbolTableRecord
100
AcDbBlockTableRecord
  2
_EX_NNORM
  0
BLOCK_RECORD
  5
2F
100
AcDbSymbolTableRecord
100
AcDbBlockTableRecord
  2
_EX_BBOX
  0
BLOCK_RECORD
  5
30
100
AcDbSymbolTableRecord
100
AcDbBlockTableRecord
  2
_EX_WBOX
  0
BLOCK_RECORD
  5
31
100
AcDbSymbolTableRecord
100
AcDbBlockTableRecord
  2
_EX_INTEGRAL
  0
ENDTAB
  0
ENDSEC
  0
SECTION
  2
BLOCKS
  0
BLOCK
  5
D
100
AcDbEntity
  8
0
100
AcDbBlockBegin
  2
*MODEL_SPACE
 70
     0
 10
0.0
 20
0.0
 30
0.0
  3
*MODEL_SPACE
  1

  0
ENDBLK
  5
E
100
AcDbEntity
  8
0
100
AcDbBlockEnd
  0
BLOCK
  5
F
100
AcDbEntity
 67
     1
  8
0
100
AcDbBlockBegin
  2
*PAPER_SPACE
 70
     0
 10
0.0
 20
0.0
 30
0.0
  3
*PAPER_SPACE
  1

  0
ENDBLK
  5
10
100
AcDbEntity
 67
     1
  8
0
100
AcDbBlockEnd
  0
BLOCK
  5
32
100
AcDbEntity
  8
0
100
AcDbBlockBegin
  2
_EX_NORM
 70
     0
 10
0.0
 20
0.0
 30
0.0
  3
_EX_NORM
  1

  0
LINE
  5
33
100
AcDbEntity
  8
0
  6
CONTINUOUS
 62
     0
100
AcDbLine
 10
0.0
 20
0.0
 30
0.0
 11
-1.0
 21
0.0
 31
0.0
  0
LINE
  5
34
100
AcDbEntity
  8
0
  6
CONTINUOUS
 62
     0
100
AcDbLine
 10
0.0
 20
0.0
 30
0.0
 11
-1.0
 21
0.166667
 31
0.0
  0
LINE
  5
35
100
AcDbEntity
  8
0
  6
CONTINUOUS
 62
     0
100
AcDbLine
 10
0.0
 20
0.0
 30
0.0
 11
-1.0
 21
-0.166667
 31
0.0
  0
ENDBLK
  5
36
100
AcDbEntity
  8
0
100
AcDbBlockEnd
  0
BLOCK
  5
37
100
AcDbEntity
  8
0
100
AcDbBlockBegin
  2
_EX_BNORM
 70
     0
 10
0.0
 20
0.0
 30
0.0
  3
_EX_BNORM
  1

  0
LINE
  5
38
100
AcDbEntity
  8
0
  6
CONTINUOUS
 62
     0
100
AcDbLine
 10
0.0
 20
0.0
 30
0.0
 11
-1.0
 21
0.0
 31
0.0
  0
LINE
  5
39
100
AcDbEntity
  8
0
  6
CONTINUOUS
 62
     0
100
AcDbLine
 10
0.0
 20
0.0
 30
0.0
 11
-1.0
 21
0.166667
 31
0.0
  0
LINE
  5
3A
100
AcDbEntity
  8
0
  6
CONTINUOUS
 62
     0
100
AcDbLine
 10
0.0
 20
0.0
 30
0.0
 11
-1.0
 21
-0.166667
 31
0.0
  0
LINE
  5
3B
100
AcDbEntity
  8
0
  6
CONTINUOUS
 62
     0
100
AcDbLine
 10
0.0
 20
0.0
 30
0.0
 11
-1.0
 21
0.083333
 31
0.0
  0
LINE
  5
3C
100
AcDbEntity
  8
0
  6
CONTINUOUS
 62
     0
100
AcDbLine
 10
0.0
 20
0.0
 30
0.0
 11
-1.0
 21
-0.083333
 31
0.0
  0
LINE
  5
3D
100
AcDbEntity
  8
0
  6
CONTINUOUS
 62
     0
100
AcDbLine
 10
-1.0
 20
0.166667
 30
0.0
 11
-1.0
 21
-0.166667
 31
0.0
  0
ENDBLK
  5
3E
100
AcDbEntity
  8
0
100
AcDbBlockEnd
  0
BLOCK
  5
3F
100
AcDbEntity
  8
0
100
AcDbBlockBegin
  2
_EX_BCIR
 70
     0
 10
0.0
 20
0.0
 30
0.0
  3
_EX_BCIR
  1

  0
LINE
  5
40
100
AcDbEntity
  8
0
  6
CONTINUOUS
 62
     0
100
AcDbLine
 10
0.0
 20
0.0
 30
0.0
 11
-1.0
 21
0.0
 31
0.0
  0
CIRCLE
  5
41
100
AcDbEntity
  8
0
  6
CONTINUOUS
 62
     0
100
AcDbCircle
 10
0.0
 20
0.0
 30
0.0
 40
0.5
  0
CIRCLE
  5
42
100
AcDbEntity
  8
0
  6
CONTINUOUS
 62
     0
100
AcDbCircle
 10
0.0
 20
0.0
 30
0.0
 40
0.25
  0
ENDBLK
  5
43
100
AcDbEntity
  8
0
100
AcDbBlockEnd
  0
BLOCK
  5
44
100
AcDbEntity
  8
0
100
AcDbBlockBegin
  2
_EX_RCIVIL
 70
     0
 10
0.0
 20
0.0
 30
0.0
  3
_EX_RCIVIL
  1

  0
LINE
  5
45
100
AcDbEntity
  8
0
  6
CONTINUOUS
 62
     0
100
AcDbLine
 10
0.0
 20
0.0
 30
0.0
 11
-1.0
 21
0.0
 31
0.0
  0
LINE
  5
46
100
AcDbEntity
  8
0
  6
CONTINUOUS
 62
     0
100
AcDbLine
 10
-1.0
 20
-0.25
 30
0.0
 11
0.0
 21
-0.25
 31
0.0
  0
LINE
  5
47
100
AcDbEntity
  8
0
  6
CONTINUOUS
 62
     0
100
AcDbLine
 10
-1.0
 20
-0.125
 30
0.0
 11
0.0
 21
-0.125
 31
0.0
  0
ENDBLK
  5
48
100
AcDbEntity
  8
0
100
AcDbBlockEnd
  0
BLOCK
  5
49
100
AcDbEntity
  8
0
100
AcDbBlockBegin
  2
_EX_SLANT
 70
     0
 10
0.0
 20
0.0
 30
0.0
  3
_EX_SLANT
  1

  0
LINE
  5
4A
100
AcDbEntity
  8
0
  6
CONTINUOUS
 62
     0
100
AcDbLine
 10
0.0
 20
0.0
 30
0.0
 11
-1.0
 21
0.0
 31
0.0
  0
LINE
  5
4B
100
AcDbEntity
  8
0
  6
CONTINUOUS
 62
     0
100
AcDbLine
 10
0.707107
 20
0.707107
 30
0.0
 11
-0.707107
 21
-0.707107
 31
0.0
  0
ENDBLK
  5
4C
100
AcDbEntity
  8
0
100
AcDbBlockEnd
  0
BLOCK
  5
4D
100
AcDbEntity
  8
0
100
AcDbBlockBegin
  2
_EX_NONE
 70
     0
 10
0.0
 20
0.0
 30
0.0
  3
_EX_NONE
  1

  0
LINE
  5
4E
100
AcDbEntity
  8
0
  6
CONTINUOUS
 62
     0
100
AcDbLine
 10
0.0
 20
0.0
 30
0.0
 11
-1.0
 21
0.0
 31
0.0
  0
ENDBLK
  5
4F
100
AcDbEntity
  8
0
100
AcDbBlockEnd
  0
BLOCK
  5
50
100
AcDbEntity
  8
0
100
AcDbBlockBegin
  2
_EX_CIVIL
 70
     0
 10
0.0
 20
0.0
 30
0.0
  3
_EX_CIVIL
  1

  0
LINE
  5
51
100
AcDbEntity
  8
0
  6
CONTINUOUS
 62
     0
100
AcDbLine
 10
0.0
 20
0.0
 30
0.0
 11
-1.0
 21
0.0
 31
0.0
  0
LINE
  5
52
100
AcDbEntity
  8
0
  6
CONTINUOUS
 62
     0
100
AcDbLine
 10
-1.0
 20
0.25
 30
0.0
 11
0.0
 21
0.25
 31
0.0
  0
LINE
  5
53
100
AcDbEntity
  8
0
  6
CONTINUOUS
 62
     0
100
AcDbLine
 10
-1.0
 20
0.125
 30
0.0
 11
0.0
 21
0.125
 31
0.0
  0
ENDBLK
  5
54
100
AcDbEntity
  8
0
100
AcDbBlockEnd
  0
BLOCK
  5
55
100
AcDbEntity
  8
0
100
AcDbBlockBegin
  2
_EX_WCIR
 70
     0
 10
0.0
 20
0.0
 30
0.0
  3
_EX_WCIR
  1

  0
LINE
  5
56
100
AcDbEntity
  8
0
  6
CONTINUOUS
 62
     0
100
AcDbLine
 10
0.0
 20
0.0
 30
0.0
 11
-1.0
 21
0.0
 31
0.0
  0
CIRCLE
  5
57
100
AcDbEntity
  8
0
  6
CONTINUOUS
 62
     0
100
AcDbCircle
 10
0.0
 20
0.0
 30
0.0
 40
0.5
  0
ENDBLK
  5
58
100
AcDbEntity
  8
0
100
AcDbBlockEnd
  0
BLOCK
  5
59
100
AcDbEntity
  8
0
100
AcDbBlockBegin
  2
_EX_WCIR2
 70
     0
 10
0.0
 20
0.0
 30
0.0
  3
_EX_WCIR2
  1

  0
LINE
  5
5A
100
AcDbEntity
  8
0
  6
CONTINUOUS
 62
     0
100
AcDbLine
 10
-0.5
 20
0.0
 30
0.0
 11
-1.0
 21
0.0
 31
0.0
  0
CIRCLE
  5
5B
100
AcDbEntity
  8
0
  6
CONTINUOUS
 62
     0
100
AcDbCircle
 10
0.0
 20
0.0
 30
0.0
 40
0.5
  0
ENDBLK
  5
5C
100
AcDbEntity
  8
0
100
AcDbBlockEnd
  0
BLOCK
  5
5D
100
AcDbEntity
  8
0
100
AcDbBlockBegin
  2
_EX_WNORM
 70
     0
 10
0.0
 20
0.0
 30
0.0
  3
_EX_WNORM
  1

  0
LINE
  5
5E
100
AcDbEntity
  8
0
  6
CONTINUOUS
 62
     0
100
AcDbLine
 10
-1.0
 20
0.0
 30
0.0
 11
-1.0
 21
0.0
 31
0.0
  0
LINE
  5
5F
100
AcDbEntity
  8
0
  6
CONTINUOUS
 62
     0
100
AcDbLine
 10
0.0
 20
0.0
 30
0.0
 11
-1.0
 21
0.166667
 31
0.0
  0
LINE
  5
60
100
AcDbEntity
  8
0
  6
CONTINUOUS
 62
     0
100
AcDbLine
 10
0.0
 20
0.0
 30
0.0
 11
-1.0
 21
-0.166667
 31
0.0
  0
LINE
  5
61
100
AcDbEntity
  8
0
  6
CONTINUOUS
 62
     0
100
AcDbLine
 10
-1.0
 20
0.166667
 30
0.0
 11
-1.0
 21
-0.166667
 31
0.0
  0
ENDBLK
  5
62
100
AcDbEntity
  8
0
100
AcDbBlockEnd
  0
BLOCK
  5
63
100
AcDbEntity
  8
0
100
AcDbBlockBegin
  2
_EX_NNORM
 70
     0
 10
0.0
 20
0.0
 30
0.0
  3
_EX_NNORM
  1

  0
LINE
  5
64
100
AcDbEntity
  8
0
  6
CONTINUOUS
 62
     0
100
AcDbLine
 10
0.0
 20
0.0
 30
0.0
 11
-1.0
 21
0.0
 31
0.0
  0
LINE
  5
65
100
AcDbEntity
  8
0
  6
CONTINUOUS
 62
     0
100
AcDbLine
 10
0.0
 20
0.0
 30
0.0
 11
-1.0
 21
0.166667
 31
0.0
  0
LINE
  5
66
100
AcDbEntity
  8
0
  6
CONTINUOUS
 62
     0
100
AcDbLine
 10
0.0
 20
0.0
 30
0.0
 11
-1.0
 21
-0.166667
 31
0.0
  0
LINE
  5
67
100
AcDbEntity
  8
0
  6
CONTINUOUS
 62
     0
100
AcDbLine
 10
-1.0
 20
0.166667
 30
0.0
 11
-1.0
 21
-0.166667
 31
0.0
  0
ENDBLK
  5
68
100
AcDbEntity
  8
0
100
AcDbBlockEnd
  0
BLOCK
  5
69
100
AcDbEntity
  8
0
100
AcDbBlockBegin
  2
_EX_BBOX
 70
     0
 10
0.0
 20
0.0
 30
0.0
  3
_EX_BBOX
  1

  0
LINE
  5
6A
100
AcDbEntity
  8
0
  6
CONTINUOUS
 62
     0
100
AcDbLine
 10
0.0
 20
0.0
 30
0.0
 11
-1.0
 21
0.0
 31
0.0
  0
LINE
  5
6B
100
AcDbEntity
  8
0
  6
CONTINUOUS
 62
     0
100
AcDbLine
 10
-0.5
 20
0.5
 30
0.0
 11
0.5
 21
0.5
 31
0.0
  0
LINE
  5
6C
100
AcDbEntity
  8
0
  6
CONTINUOUS
 62
     0
100
AcDbLine
 10
0.5
 20
0.5
 30
0.0
 11
0.5
 21
-0.5
 31
0.0
  0
LINE
  5
6D
100
AcDbEntity
  8
0
  6
CONTINUOUS
 62
     0
100
AcDbLine
 10
0.5
 20
-0.5
 30
0.0
 11
-0.5
 21
-0.5
 31
0.0
  0
LINE
  5
6E
100
AcDbEntity
  8
0
  6
CONTINUOUS
 62
     0
100
AcDbLine
 10
-0.5
 20
-0.5
 30
0.0
 11
-0.5
 21
0.5
 31
0.0
  0
LINE
  5
6F
100
AcDbEntity
  8
0
  6
CONTINUOUS
 62
     0
100
AcDbLine
 10
-0.25
 20
0.25
 30
0.0
 11
0.25
 21
0.25
 31
0.0
  0
LINE
  5
70
100
AcDbEntity
  8
0
  6
CONTINUOUS
 62
     0
100
AcDbLine
 10
0.25
 20
0.25
 30
0.0
 11
0.25
 21
-0.25
 31
0.0
  0
LINE
  5
71
100
AcDbEntity
  8
0
  6
CONTINUOUS
 62
     0
100
AcDbLine
 10
0.25
 20
-0.25
 30
0.0
 11
-0.25
 21
-0.25
 31
0.0
  0
LINE
  5
72
100
AcDbEntity
  8
0
  6
CONTINUOUS
 62
     0
100
AcDbLine
 10
-0.25
 20
-0.25
 30
0.0
 11
-0.25
 21
0.25
 31
0.0
  0
ENDBLK
  5
73
100
AcDbEntity
  8
0
100
AcDbBlockEnd
  0
BLOCK
  5
74
100
AcDbEntity
  8
0
100
AcDbBlockBegin
  2
_EX_WBOX
 70
     0
 10
0.0
 20
0.0
 30
0.0
  3
_EX_WBOX
  1

  0
LINE
  5
75
100
AcDbEntity
  8
0
  6
CONTINUOUS
 62
     0
100
AcDbLine
 10
-0.5
 20
0.0
 30
0.0
 11
-1.0
 21
0.0
 31
0.0
  0
LINE
  5
76
100
AcDbEntity
  8
0
  6
CONTINUOUS
 62
     0
100
AcDbLine
 10
-0.5
 20
0.5
 30
0.0
 11
0.5
 21
0.5
 31
0.0
  0
LINE
  5
77
100
AcDbEntity
  8
0
  6
CONTINUOUS
 62
     0
100
AcDbLine
 10
0.5
 20
0.5
 30
0.0
 11
0.5
 21
-0.5
 31
0.0
  0
LINE
  5
78
100
AcDbEntity
  8
0
  6
CONTINUOUS
 62
     0
100
AcDbLine
 10
0.5
 20
-0.5
 30
0.0
 11
-0.5
 21
-0.5
 31
0.0
  0
LINE
  5
79
100
AcDbEntity
  8
0
  6
CONTINUOUS
 62
     0
100
AcDbLine
 10
-0.5
 20
-0.5
 30
0.0
 11
-0.5
 21
0.5
 31
0.0
  0
ENDBLK
  5
7A
100
AcDbEntity
  8
0
100
AcDbBlockEnd
  0
BLOCK
  5
7B
100
AcDbEntity
  8
0
100
AcDbBlockBegin
  2
_EX_INTEGRAL
 70
     0
 10
0.0
 20
0.0
 30
0.0
  3
_EX_INTEGRAL
  1

  0
LINE
  5
7C
100
AcDbEntity
  8
0
  6
CONTINUOUS
 62
     0
100
AcDbLine
 10
0.0
 20
0.0
 30
0.0
 11
-1.0
 21
0.0
 31
0.0
  0
ARC
  5
7D
100
AcDbEntity
  8
0
  6
CONTINUOUS
 62
     0
100
AcDbCircle
 10
0.0
 20
0.0
 30
0.0
 40
0.707107
100
AcDbArc
 50
90.0
 51
180.0
  0
ARC
  5
7E
100
AcDbEntity
  8
0
  6
CONTINUOUS
 62
     0
100
AcDbCircle
 10
0.0
 20
0.0
 30
0.0
 40
0.707107
100
AcDbArc
 50
270.0
 51
0.0
  0
ENDBLK
  5
7F
100
AcDbEntity
  8
0
100
AcDbBlockEnd
  0
ENDSEC
  0
SECTION
  2
ENTITIES
  0
LINE
  5
80
100
AcDbEntity
  8
図面枠・表題欄
  6
CONTINUOUS
 62
     6
100
AcDbLine
 10
258.5
 20
2033.313149
 30
0.0
 11
258.936851
 21
2033.75
 31
0.0
  0
LINE
  5
81
100
AcDbEntity
  8
図面枠・表題欄
  6
CONTINUOUS
 62
     6
100
AcDbLine
 10
258.5
 20
2032.606042
 30
0.0
 11
259.643958
 21
2033.75
 31
0.0
  0
LINE
  5
82
100
AcDbEntity
  8
図面枠・表題欄
  6
CONTINUOUS
 62
     6
100
AcDbLine
 10
258.5
 20
2031.898936
 30
0.0
 11
260.351064
 21
2033.75
 31
0.0
  0
LINE
  5
83
100
AcDbEntity
  8
図面枠・表題欄
  6
CONTINUOUS
 62
     6
100
AcDbLine
 10
258.5
 20
2031.191829
 30
0.0
 11
261.058171
 21
2033.75
 31
0.0
  0
LINE
  5
84
100
AcDbEntity
  8
図面枠・表題欄
  6
CONTINUOUS
 62
     6
100
AcDbLine
 10
258.5
 20
2030.484722
 30
0.0
 11
261.765278
 21
2033.75
 31
0.0
  0
LINE
  5
85
100
AcDbEntity
  8
図面枠・表題欄
  6
CONTINUOUS
 62
     6
100
AcDbLine
 10
258.5
 20
2029.777615
 30
0.0
 11
262.472385
 21
2033.75
 31
0.0
  0
LINE
  5
86
100
AcDbEntity
  8
図面枠・表題欄
  6
CONTINUOUS
 62
     6
100
AcDbLine
 10
258.5
 20
2029.070509
 30
0.0
 11
263.179491
 21
2033.75
 31
0.0
  0
LINE
  5
87
100
AcDbEntity
  8
図面枠・表題欄
  6
CONTINUOUS
 62
     6
100
AcDbLine
 10
258.5
 20
2028.363402
 30
0.0
 11
263.886598
 21
2033.75
 31
0.0
  0
LINE
  5
88
100
AcDbEntity
  8
図面枠・表題欄
  6
CONTINUOUS
 62
     6
100
AcDbLine
 10
258.518705
 20
2027.675
 30
0.0
 11
264.593705
 21
2033.75
 31
0.0
  0
LINE
  5
89
100
AcDbEntity
  8
図面枠・表題欄
  6
CONTINUOUS
 62
     6
100
AcDbLine
 10
259.225812
 20
2027.675
 30
0.0
 11
265.300812
 21
2033.75
 31
0.0
  0
LINE
  5
8A
100
AcDbEntity
  8
図面枠・表題欄
  6
CONTINUOUS
 62
     6
100
AcDbLine
 10
259.932919
 20
2027.675
 30
0.0
 11
266.007919
 21
2033.75
 31
0.0
  0
LINE
  5
8B
100
AcDbEntity
  8
図面枠・表題欄
  6
CONTINUOUS
 62
     6
100
AcDbLine
 10
260.640025
 20
2027.675
 30
0.0
 11
266.715025
 21
2033.75
 31
0.0
  0
LINE
  5
8C
100
AcDbEntity
  8
図面枠・表題欄
  6
CONTINUOUS
 62
     6
100
AcDbLine
 10
261.347132
 20
2027.675
 30
0.0
 11
267.422132
 21
2033.75
 31
0.0
  0
LINE
  5
8D
100
AcDbEntity
  8
図面枠・表題欄
  6
CONTINUOUS
 62
     6
100
AcDbLine
 10
262.054239
 20
2027.675
 30
0.0
 11
268.129239
 21
2033.75
 31
0.0
  0
LINE
  5
8E
100
AcDbEntity
  8
図面枠・表題欄
  6
CONTINUOUS
 62
     6
100
AcDbLine
 10
262.761346
 20
2027.675
 30
0.0
 11
268.836346
 21
2033.75
 31
0.0
  0
LINE
  5
8F
100
AcDbEntity
  8
図面枠・表題欄
  6
CONTINUOUS
 62
     6
100
AcDbLine
 10
263.468452
 20
2027.675
 30
0.0
 11
269.543452
 21
2033.75
 31
0.0
  0
LINE
  5
90
100
AcDbEntity
  8
図面枠・表題欄
  6
CONTINUOUS
 62
     6
100
AcDbLine
 10
264.175559
 20
2027.675
 30
0.0
 11
270.250559
 21
2033.75
 31
0.0
  0
LINE
  5
91
100
AcDbEntity
  8
図面枠・表題欄
  6
CONTINUOUS
 62
     6
100
AcDbLine
 10
264.882666
 20
2027.675
 30
0.0
 11
270.957666
 21
2033.75
 31
0.0
  0
LINE
  5
92
100
AcDbEntity
  8
図面枠・表題欄
  6
CONTINUOUS
 62
     6
100
AcDbLine
 10
265.589773
 20
2027.675
 30
0.0
 11
271.664773
 21
2033.75
 31
0.0
  0
LINE
  5
93
100
AcDbEntity
  8
図面枠・表題欄
  6
CONTINUOUS
 62
     6
100
AcDbLine
 10
266.29688
 20
2027.675
 30
0.0
 11
272.37188
 21
2033.75
 31
0.0
  0
LINE
  5
94
100
AcDbEntity
  8
図面枠・表題欄
  6
CONTINUOUS
 62
     6
100
AcDbLine
 10
267.003986
 20
2027.675
 30
0.0
 11
273.078986
 21
2033.75
 31
0.0
  0
LINE
  5
95
100
AcDbEntity
  8
図面枠・表題欄
  6
CONTINUOUS
 62
     6
100
AcDbLine
 10
267.711093
 20
2027.675
 30
0.0
 11
273.786093
 21
2033.75
 31
0.0
  0
LINE
  5
96
100
AcDbEntity
  8
図面枠・表題欄
  6
CONTINUOUS
 62
     6
100
AcDbLine
 10
268.4182
 20
2027.675
 30
0.0
 11
274.4932
 21
2033.75
 31
0.0
  0
LINE
  5
97
100
AcDbEntity
  8
図面枠・表題欄
  6
CONTINUOUS
 62
     6
100
AcDbLine
 10
269.125307
 20
2027.675
 30
0.0
 11
275.200307
 21
2033.75
 31
0.0
  0
LINE
  5
98
100
AcDbEntity
  8
図面枠・表題欄
  6
CONTINUOUS
 62
     6
100
AcDbLine
 10
269.832413
 20
2027.675
 30
0.0
 11
275.907413
 21
2033.75
 31
0.0
  0
LINE
  5
99
100
AcDbEntity
  8
図面枠・表題欄
  6
CONTINUOUS
 62
     6
100
AcDbLine
 10
270.53952
 20
2027.675
 30
0.0
 11
276.61452
 21
2033.75
 31
0.0
  0
LINE
  5
9A
100
AcDbEntity
  8
図面枠・表題欄
  6
CONTINUOUS
 62
     6
100
AcDbLine
 10
271.246627
 20
2027.675
 30
0.0
 11
277.321627
 21
2033.75
 31
0.0
  0
LINE
  5
9B
100
AcDbEntity
  8
図面枠・表題欄
  6
CONTINUOUS
 62
     6
100
AcDbLine
 10
271.953734
 20
2027.675
 30
0.0
 11
278.028734
 21
2033.75
 31
0.0
  0
LINE
  5
9C
100
AcDbEntity
  8
図面枠・表題欄
  6
CONTINUOUS
 62
     6
100
AcDbLine
 10
272.660841
 20
2027.675
 30
0.0
 11
278.735841
 21
2033.75
 31
0.0
  0
LINE
  5
9D
100
AcDbEntity
  8
図面枠・表題欄
  6
CONTINUOUS
 62
     6
100
AcDbLine
 10
273.367947
 20
2027.675
 30
0.0
 11
279.442947
 21
2033.75
 31
0.0
  0
LINE
  5
9E
100
AcDbEntity
  8
図面枠・表題欄
  6
CONTINUOUS
 62
     6
100
AcDbLine
 10
273.6875
 20
2027.287446
 30
0.0
 11
280.150054
 21
2033.75
 31
0.0
  0
LINE
  5
9F
100
AcDbEntity
  8
図面枠・表題欄
  6
CONTINUOUS
 62
     6
100
AcDbLine
 10
273.6875
 20
2026.580339
 30
0.0
 11
280.857161
 21
2033.75
 31
0.0
  0
LINE
  5
A0
100
AcDbEntity
  8
図面枠・表題欄
  6
CONTINUOUS
 62
     6
100
AcDbLine
 10
273.6875
 20
2025.873232
 30
0.0
 11
281.564268
 21
2033.75
 31
0.0
  0
LINE
  5
A1
100
AcDbEntity
  8
図面枠・表題欄
  6
CONTINUOUS
 62
     6
100
AcDbLine
 10
273.6875
 20
2025.166125
 30
0.0
 11
282.271375
 21
2033.75
 31
0.0
  0
LINE
  5
A2
100
AcDbEntity
  8
図面枠・表題欄
  6
CONTINUOUS
 62
     6
100
AcDbLine
 10
273.6875
 20
2024.459019
 30
0.0
 11
282.978481
 21
2033.75
 31
0.0
  0
LINE
  5
A3
100
AcDbEntity
  8
図面枠・表題欄
  6
CONTINUOUS
 62
     6
100
AcDbLine
 10
273.6875
 20
2023.751912
 30
0.0
 11
283.685588
 21
2033.75
 31
0.0
  0
LINE
  5
A4
100
AcDbEntity
  8
図面枠・表題欄
  6
CONTINUOUS
 62
     6
100
AcDbLine
 10
273.6875
 20
2023.044805
 30
0.0
 11
284.392695
 21
2033.75
 31
0.0
  0
LINE
  5
A5
100
AcDbEntity
  8
図面枠・表題欄
  6
CONTINUOUS
 62
     6
100
AcDbLine
 10
273.6875
 20
2022.337698
 30
0.0
 11
285.099802
 21
2033.75
 31
0.0
  0
LINE
  5
A6
100
AcDbEntity
  8
図面枠・表題欄
  6
CONTINUOUS
 62
     6
100
AcDbLine
 10
273.6875
 20
2021.630592
 30
0.0
 11
285.806908
 21
2033.75
 31
0.0
  0
LINE
  5
A7
100
AcDbEntity
  8
図面枠・表題欄
  6
CONTINUOUS
 62
     6
100
AcDbLine
 10
273.6875
 20
2020.923485
 30
0.0
 11
279.7625
 21
2026.998485
 31
0.0
  0
LINE
  5
A8
100
AcDbEntity
  8
図面枠・表題欄
  6
CONTINUOUS
 62
     6
100
AcDbLine
 10
280.439015
 20
2027.675
 30
0.0
 11
286.514015
 21
2033.75
 31
0.0
  0
LINE
  5
A9
100
AcDbEntity
  8
図面枠・表題欄
  6
CONTINUOUS
 62
     6
100
AcDbLine
 10
273.6875
 20
2020.216378
 30
0.0
 11
279.7625
 21
2026.291378
 31
0.0
  0
LINE
  5
AA
100
AcDbEntity
  8
図面枠・表題欄
  6
CONTINUOUS
 62
     6
100
AcDbLine
 10
281.146122
 20
2027.675
 30
0.0
 11
287.221122
 21
2033.75
 31
0.0
  0
LINE
  5
AB
100
AcDbEntity
  8
図面枠・表題欄
  6
CONTINUOUS
 62
     6
100
AcDbLine
 10
273.6875
 20
2019.509271
 30
0.0
 11
279.7625
 21
2025.584271
 31
0.0
  0
LINE
  5
AC
100
AcDbEntity
  8
図面枠・表題欄
  6
CONTINUOUS
 62
     6
100
AcDbLine
 10
281.853229
 20
2027.675
 30
0.0
 11
287.928229
 21
2033.75
 31
0.0
  0
LINE
  5
AD
100
AcDbEntity
  8
図面枠・表題欄
  6
CONTINUOUS
 62
     6
100
AcDbLine
 10
273.6875
 20
2018.802164
 30
0.0
 11
279.7625
 21
2024.877164
 31
0.0
  0
LINE
  5
AE
100
AcDbEntity
  8
図面枠・表題欄
  6
CONTINUOUS
 62
     6
100
AcDbLine
 10
282.560336
 20
2027.675
 30
0.0
 11
288.635336
 21
2033.75
 31
0.0
  0
LINE
  5
AF
100
AcDbEntity
  8
図面枠・表題欄
  6
CONTINUOUS
 62
     6
100
AcDbLine
 10
273.6875
 20
2018.095058
 30
0.0
 11
279.7625
 21
2024.170058
 31
0.0
  0
LINE
  5
B0
100
AcDbEntity
  8
図面枠・表題欄
  6
CONTINUOUS
 62
     6
100
AcDbLine
 10
283.267442
 20
2027.675
 30
0.0
 11
289.342442
 21
2033.75
 31
0.0
  0
LINE
  5
B1
100
AcDbEntity
  8
図面枠・表題欄
  6
CONTINUOUS
 62
     6
100
AcDbLine
 10
273.6875
 20
2017.387951
 30
0.0
 11
279.7625
 21
2023.462951
 31
0.0
  0
LINE
  5
B2
100
AcDbEntity
  8
図面枠・表題欄
  6
CONTINUOUS
 62
     6
100
AcDbLine
 10
283.974549
 20
2027.675
 30
0.0
 11
290.049549
 21
2033.75
 31
0.0
  0
LINE
  5
B3
100
AcDbEntity
  8
図面枠・表題欄
  6
CONTINUOUS
 62
     6
100
AcDbLine
 10
273.6875
 20
2016.680844
 30
0.0
 11
279.7625
 21
2022.755844
 31
0.0
  0
LINE
  5
B4
100
AcDbEntity
  8
図面枠・表題欄
  6
CONTINUOUS
 62
     6
100
AcDbLine
 10
284.681656
 20
2027.675
 30
0.0
 11
290.756656
 21
2033.75
 31
0.0
  0
LINE
  5
B5
100
AcDbEntity
  8
図面枠・表題欄
  6
CONTINUOUS
 62
     6
100
AcDbLine
 10
273.6875
 20
2015.973737
 30
0.0
 11
279.7625
 21
2022.048737
 31
0.0
  0
LINE
  5
B6
100
AcDbEntity
  8
図面枠・表題欄
  6
CONTINUOUS
 62
     6
100
AcDbLine
 10
285.388763
 20
2027.675
 30
0.0
 11
291.463763
 21
2033.75
 31
0.0
  0
LINE
  5
B7
100
AcDbEntity
  8
図面枠・表題欄
  6
CONTINUOUS
 62
     6
100
AcDbLine
 10
273.6875
 20
2015.266631
 30
0.0
 11
279.7625
 21
2021.341631
 31
0.0
  0
LINE
  5
B8
100
AcDbEntity
  8
図面枠・表題欄
  6
CONTINUOUS
 62
     6
100
AcDbLine
 10
286.095869
 20
2027.675
 30
0.0
 11
292.170869
 21
2033.75
 31
0.0
  0
LINE
  5
B9
100
AcDbEntity
  8
図面枠・表題欄
  6
CONTINUOUS
 62
     6
100
AcDbLine
 10
273.6875
 20
2014.559524
 30
0.0
 11
279.7625
 21
2020.634524
 31
0.0
  0
LINE
  5
BA
100
AcDbEntity
  8
図面枠・表題欄
  6
CONTINUOUS
 62
     6
100
AcDbLine
 10
286.802976
 20
2027.675
 30
0.0
 11
292.877976
 21
2033.75
 31
0.0
  0
LINE
  5
BB
100
AcDbEntity
  8
図面枠・表題欄
  6
CONTINUOUS
 62
     6
100
AcDbLine
 10
273.6875
 20
2013.852417
 30
0.0
 11
279.7625
 21
2019.927417
 31
0.0
  0
LINE
  5
BC
100
AcDbEntity
  8
図面枠・表題欄
  6
CONTINUOUS
 62
     6
100
AcDbLine
 10
287.510083
 20
2027.675
 30
0.0
 11
293.585083
 21
2033.75
 31
0.0
  0
LINE
  5
BD
100
AcDbEntity
  8
図面枠・表題欄
  6
CONTINUOUS
 62
     6
100
AcDbLine
 10
273.6875
 20
2013.14531
 30
0.0
 11
279.7625
 21
2019.22031
 31
0.0
  0
LINE
  5
BE
100
AcDbEntity
  8
図面枠・表題欄
  6
CONTINUOUS
 62
     6
100
AcDbLine
 10
288.21719
 20
2027.675
 30
0.0
 11
294.29219
 21
2033.75
 31
0.0
  0
LINE
  5
BF
100
AcDbEntity
  8
図面枠・表題欄
  6
CONTINUOUS
 62
     6
100
AcDbLine
 10
273.6875
 20
2012.438203
 30
0.0
 11
279.7625
 21
2018.513203
 31
0.0
  0
LINE
  5
C0
100
AcDbEntity
  8
図面枠・表題欄
  6
CONTINUOUS
 62
     6
100
AcDbLine
 10
288.924297
 20
2027.675
 30
0.0
 11
294.057352
 21
2032.808056
 31
0.0
  0
LINE
  5
C1
100
AcDbEntity
  8
図面枠・表題欄
  6
CONTINUOUS
 62
     6
100
AcDbLine
 10
273.6875
 20
2011.731097
 30
0.0
 11
279.7625
 21
2017.806097
 31
0.0
  0
LINE
  5
C2
100
AcDbEntity
  8
図面枠・表題欄
  6
CONTINUOUS
 62
     6
100
AcDbLine
 10
289.631403
 20
2027.675
 30
0.0
 11
291.662856
 21
2029.706453
 31
0.0
  0
LINE
  5
C3
100
AcDbEntity
  8
図面枠・表題欄
  6
CONTINUOUS
 62
     6
100
AcDbLine
 10
273.6875
 20
2011.02399
 30
0.0
 11
279.7625
 21
2017.09899
 31
0.0
  0
LINE
  5
C4
100
AcDbEntity
  8
図面枠・表題欄
  6
CONTINUOUS
 62
     6
100
AcDbLine
 10
290.33851
 20
2027.675
 30
0.0
 11
290.596288
 21
2027.932778
 31
0.0
  0
LINE
  5
C5
100
AcDbEntity
  8
図面枠・表題欄
  6
CONTINUOUS
 62
     6
100
AcDbLine
 10
273.6875
 20
2010.316883
 30
0.0
 11
279.7625
 21
2016.391883
 31
0.0
  0
LINE
  5
C6
100
AcDbEntity
  8
図面枠・表題欄
  6
CONTINUOUS
 62
     6
100
AcDbLine
 10
273.6875
 20
2009.609776
 30
0.0
 11
279.7625
 21
2015.684776
 31
0.0
  0
LINE
  5
C7
100
AcDbEntity
  8
図面枠・表題欄
  6
CONTINUOUS
 62
     6
100
AcDbLine
 10
273.6875
 20
2008.90267
 30
0.0
 11
279.7625
 21
2014.97767
 31
0.0
  0
LINE
  5
C8
100
AcDbEntity
  8
図面枠・表題欄
  6
CONTINUOUS
 62
     6
100
AcDbLine
 10
273.6875
 20
2008.195563
 30
0.0
 11
279.7625
 21
2014.270563
 31
0.0
  0
LINE
  5
C9
100
AcDbEntity
  8
図面枠・表題欄
  6
CONTINUOUS
 62
     6
100
AcDbLine
 10
273.6875
 20
2007.488456
 30
0.0
 11
279.7625
 21
2013.563456
 31
0.0
  0
LINE
  5
CA
100
AcDbEntity
  8
図面枠・表題欄
  6
CONTINUOUS
 62
     6
100
AcDbLine
 10
273.6875
 20
2006.781349
 30
0.0
 11
279.7625
 21
2012.856349
 31
0.0
  0
LINE
  5
CB
100
AcDbEntity
  8
図面枠・表題欄
  6
CONTINUOUS
 62
     6
100
AcDbLine
 10
273.6875
 20
2006.074242
 30
0.0
 11
279.7625
 21
2012.149242
 31
0.0
  0
LINE
  5
CC
100
AcDbEntity
  8
図面枠・表題欄
  6
CONTINUOUS
 62
     6
100
AcDbLine
 10
273.6875
 20
2005.367136
 30
0.0
 11
279.7625
 21
2011.442136
 31
0.0
  0
LINE
  5
CD
100
AcDbEntity
  8
図面枠・表題欄
  6
CONTINUOUS
 62
     6
100
AcDbLine
 10
273.6875
 20
2004.660029
 30
0.0
 11
279.7625
 21
2010.735029
 31
0.0
  0
LINE
  5
CE
100
AcDbEntity
  8
図面枠・表題欄
  6
CONTINUOUS
 62
     6
100
AcDbLine
 10
273.6875
 20
2003.952922
 30
0.0
 11
279.7625
 21
2010.027922
 31
0.0
  0
LINE
  5
CF
100
AcDbEntity
  8
図面枠・表題欄
  6
CONTINUOUS
 62
     6
100
AcDbLine
 10
273.6875
 20
2003.245815
 30
0.0
 11
279.7625
 21
2009.320815
 31
0.0
  0
LINE
  5
D0
100
AcDbEntity
  8
図面枠・表題欄
  6
CONTINUOUS
 62
     6
100
AcDbLine
 10
273.6875
 20
2002.538708
 30
0.0
 11
279.7625
 21
2008.613708
 31
0.0
  0
LINE
  5
D1
100
AcDbEntity
  8
図面枠・表題欄
  6
CONTINUOUS
 62
     6
100
AcDbLine
 10
273.6875
 20
2001.831602
 30
0.0
 11
279.7625
 21
2007.906602
 31
0.0
  0
LINE
  5
D2
100
AcDbEntity
  8
図面枠・表題欄
  6
CONTINUOUS
 62
     6
100
AcDbLine
 10
273.6875
 20
2001.124495
 30
0.0
 11
279.7625
 21
2007.199495
 31
0.0
  0
LINE
  5
D3
100
AcDbEntity
  8
図面枠・表題欄
  6
CONTINUOUS
 62
     6
100
AcDbLine
 10
273.6875
 20
2000.417388
 30
0.0
 11
279.7625
 21
2006.492388
 31
0.0
  0
LINE
  5
D4
100
AcDbEntity
  8
図面枠・表題欄
  6
CONTINUOUS
 62
     6
100
AcDbLine
 10
273.6875
 20
1999.710281
 30
0.0
 11
279.7625
 21
2005.785281
 31
0.0
  0
LINE
  5
D5
100
AcDbEntity
  8
図面枠・表題欄
  6
CONTINUOUS
 62
     6
100
AcDbLine
 10
273.6875
 20
1999.003175
 30
0.0
 11
279.7625
 21
2005.078175
 31
0.0
  0
LINE
  5
D6
100
AcDbEntity
  8
図面枠・表題欄
  6
CONTINUOUS
 62
     6
100
AcDbLine
 10
273.6875
 20
1998.296068
 30
0.0
 11
279.7625
 21
2004.371068
 31
0.0
  0
LINE
  5
D7
100
AcDbEntity
  8
図面枠・表題欄
  6
CONTINUOUS
 62
     6
100
AcDbLine
 10
273.6875
 20
1997.588961
 30
0.0
 11
279.7625
 21
2003.663961
 31
0.0
  0
LINE
  5
D8
100
AcDbEntity
  8
図面枠・表題欄
  6
CONTINUOUS
 62
     6
100
AcDbLine
 10
274.105646
 20
1997.3
 30
0.0
 11
279.7625
 21
2002.956854
 31
0.0
  0
LINE
  5
D9
100
AcDbEntity
  8
図面枠・表題欄
  6
CONTINUOUS
 62
     6
100
AcDbLine
 10
274.812753
 20
1997.3
 30
0.0
 11
279.7625
 21
2002.249747
 31
0.0
  0
LINE
  5
DA
100
AcDbEntity
  8
図面枠・表題欄
  6
CONTINUOUS
 62
     6
100
AcDbLine
 10
275.519859
 20
1997.3
 30
0.0
 11
279.7625
 21
2001.542641
 31
0.0
  0
LINE
  5
DB
100
AcDbEntity
  8
図面枠・表題欄
  6
CONTINUOUS
 62
     6
100
AcDbLine
 10
276.226966
 20
1997.3
 30
0.0
 11
279.7625
 21
2000.835534
 31
0.0
  0
LINE
  5
DC
100
AcDbEntity
  8
図面枠・表題欄
  6
CONTINUOUS
 62
     6
100
AcDbLine
 10
276.934073
 20
1997.3
 30
0.0
 11
279.7625
 21
2000.128427
 31
0.0
  0
LINE
  5
DD
100
AcDbEntity
  8
図面枠・表題欄
  6
CONTINUOUS
 62
     6
100
AcDbLine
 10
277.64118
 20
1997.3
 30
0.0
 11
279.7625
 21
1999.42132
 31
0.0
  0
LINE
  5
DE
100
AcDbEntity
  8
図面枠・表題欄
  6
CONTINUOUS
 62
     6
100
AcDbLine
 10
278.348286
 20
1997.3
 30
0.0
 11
279.7625
 21
1998.714214
 31
0.0
  0
LINE
  5
DF
100
AcDbEntity
  8
図面枠・表題欄
  6
CONTINUOUS
 62
     6
100
AcDbLine
 10
279.055393
 20
1997.3
 30
0.0
 11
279.7625
 21
1998.007107
 31
0.0
  0
LINE
  5
E0
100
AcDbEntity
  8
図面枠・表題欄
  6
CONTINUOUS
 62
     6
100
AcDbLine
 10
297.832226
 20
2032.028607
 30
0.0
 11
299.164565
 21
2033.360946
 31
0.0
  0
LINE
  5
E1
100
AcDbEntity
  8
図面枠・表題欄
  6
CONTINUOUS
 62
     6
100
AcDbLine
 10
295.322126
 20
2028.8114
 30
0.0
 11
302.381771
 21
2035.871045
 31
0.0
  0
LINE
  5
E2
100
AcDbEntity
  8
図面枠・表題欄
  6
CONTINUOUS
 62
     6
100
AcDbLine
 10
294.28356
 20
2027.065728
 30
0.0
 11
304.127444
 21
2036.909611
 31
0.0
  0
LINE
  5
E3
100
AcDbEntity
  8
図面枠・表題欄
  6
CONTINUOUS
 62
     6
100
AcDbLine
 10
293.580646
 20
2025.655707
 30
0.0
 11
305.537465
 21
2037.612525
 31
0.0
  0
LINE
  5
E4
100
AcDbEntity
  8
図面枠・表題欄
  6
CONTINUOUS
 62
     6
100
AcDbLine
 10
293.056426
 20
2024.42438
 30
0.0
 11
306.768792
 21
2038.136746
 31
0.0
  0
LINE
  5
E5
100
AcDbEntity
  8
図面枠・表題欄
  6
CONTINUOUS
 62
     6
100
AcDbLine
 10
292.648872
 20
2023.309719
 30
0.0
 11
307.883452
 21
2038.544299
 31
0.0
  0
LINE
  5
E6
100
AcDbEntity
  8
図面枠・表題欄
  6
CONTINUOUS
 62
     6
100
AcDbLine
 10
292.325804
 20
2022.279544
 30
0.0
 11
308.913628
 21
2038.867368
 31
0.0
  0
LINE
  5
E7
100
AcDbEntity
  8
図面枠・表題欄
  6
CONTINUOUS
 62
     6
100
AcDbLine
 10
292.067943
 20
2021.314576
 30
0.0
 11
309.878596
 21
2039.125229
 31
0.0
  0
LINE
  5
E8
100
AcDbEntity
  8
図面枠・表題欄
  6
CONTINUOUS
 62
     6
100
AcDbLine
 10
291.862643
 20
2020.402169
 30
0.0
 11
310.791003
 21
2039.330529
 31
0.0
  0
LINE
  5
E9
100
AcDbEntity
  8
図面枠・表題欄
  6
CONTINUOUS
 62
     6
100
AcDbLine
 10
291.701069
 20
2019.533489
 30
0.0
 11
311.659683
 21
2039.492103
 31
0.0
  0
LINE
  5
EA
100
AcDbEntity
  8
図面枠・表題欄
  6
CONTINUOUS
 62
     6
100
AcDbLine
 10
291.576758
 20
2018.702071
 30
0.0
 11
312.491101
 21
2039.616414
 31
0.0
  0
LINE
  5
EB
100
AcDbEntity
  8
図面枠・表題欄
  6
CONTINUOUS
 62
     6
100
AcDbLine
 10
291.484809
 20
2017.903015
 30
0.0
 11
313.290157
 21
2039.708363
 31
0.0
  0
LINE
  5
EC
100
AcDbEntity
  8
図面枠・表題欄
  6
CONTINUOUS
 62
     6
100
AcDbLine
 10
291.4214
 20
2017.132499
 30
0.0
 11
314.060672
 21
2039.771772
 31
0.0
  0
LINE
  5
ED
100
AcDbEntity
  8
図面枠・表題欄
  6
CONTINUOUS
 62
     6
100
AcDbLine
 10
291.383482
 20
2016.387475
 30
0.0
 11
314.805697
 21
2039.809689
 31
0.0
  0
LINE
  5
EE
100
AcDbEntity
  8
図面枠・表題欄
  6
CONTINUOUS
 62
     6
100
AcDbLine
 10
291.368578
 20
2015.665464
 30
0.0
 11
315.527708
 21
2039.824594
 31
0.0
  0
LINE
  5
EF
100
AcDbEntity
  8
図面枠・表題欄
  6
CONTINUOUS
 62
     6
100
AcDbLine
 10
291.374639
 20
2014.964418
 30
0.0
 11
316.228754
 21
2039.818533
 31
0.0
  0
LINE
  5
F0
100
AcDbEntity
  8
図面枠・表題欄
  6
CONTINUOUS
 62
     6
100
AcDbLine
 10
291.399952
 20
2014.282624
 30
0.0
 11
316.910548
 21
2039.79322
 31
0.0
  0
LINE
  5
F1
100
AcDbEntity
  8
図面枠・表題欄
  6
CONTINUOUS
 62
     6
100
AcDbLine
 10
291.443066
 20
2013.618631
 30
0.0
 11
317.57454
 21
2039.750106
 31
0.0
  0
LINE
  5
F2
100
AcDbEntity
  8
図面枠・表題欄
  6
CONTINUOUS
 62
     6
100
AcDbLine
 10
314.340562
 20
1991.261294
 30
0.0
 11
339.931878
 21
2016.85261
 31
0.0
  0
LINE
  5
F3
100
AcDbEntity
  8
図面枠・表題欄
  6
CONTINUOUS
 62
     6
100
AcDbLine
 10
315.020021
 20
1991.233646
 30
0.0
 11
339.959526
 21
2016.173151
 31
0.0
  0
LINE
  5
F4
100
AcDbEntity
  8
図面枠・表題欄
  6
CONTINUOUS
 62
     6
100
AcDbLine
 10
315.718534
 20
1991.225052
 30
0.0
 11
339.96812
 21
2015.474638
 31
0.0
  0
LINE
  5
F5
100
AcDbEntity
  8
図面枠・表題欄
  6
CONTINUOUS
 62
     6
100
AcDbLine
 10
316.437779
 20
1991.23719
 30
0.0
 11
339.955982
 21
2014.755393
 31
0.0
  0
LINE
  5
F6
100
AcDbEntity
  8
図面枠・表題欄
  6
CONTINUOUS
 62
     6
100
AcDbLine
 10
317.179755
 20
1991.27206
 30
0.0
 11
339.921112
 21
2014.013417
 31
0.0
  0
LINE
  5
F7
100
AcDbEntity
  8
図面枠・表題欄
  6
CONTINUOUS
 62
     6
100
AcDbLine
 10
317.94688
 20
1991.332078
 30
0.0
 11
339.861094
 21
2013.246292
 31
0.0
  0
LINE
  5
F8
100
AcDbEntity
  8
図面枠・表題欄
  6
CONTINUOUS
 62
     6
100
AcDbLine
 10
318.74212
 20
1991.420211
 30
0.0
 11
339.772961
 21
2012.451051
 31
0.0
  0
LINE
  5
F9
100
AcDbEntity
  8
図面枠・表題欄
  6
CONTINUOUS
 62
     6
100
AcDbLine
 10
319.569185
 20
1991.54017
 30
0.0
 11
339.653002
 21
2011.623986
 31
0.0
  0
LINE
  5
FA
100
AcDbEntity
  8
図面枠・表題欄
  6
CONTINUOUS
 62
     6
100
AcDbLine
 10
320.432817
 20
1991.696694
 30
0.0
 11
339.496478
 21
2010.760355
 31
0.0
  0
LINE
  5
FB
100
AcDbEntity
  8
図面枠・表題欄
  6
CONTINUOUS
 62
     6
100
AcDbLine
 10
321.339244
 20
1991.896015
 30
0.0
 11
339.297157
 21
2009.853927
 31
0.0
  0
LINE
  5
FC
100
AcDbEntity
  8
図面枠・表題欄
  6
CONTINUOUS
 62
     6
100
AcDbLine
 10
322.296939
 20
1992.146603
 30
0.0
 11
339.046569
 21
2008.896232
 31
0.0
  0
LINE
  5
FD
100
AcDbEntity
  8
図面枠・表題欄
  6
CONTINUOUS
 62
     6
100
AcDbLine
 10
323.317948
 20
1992.460505
 30
0.0
 11
338.732667
 21
2007.875224
 31
0.0
  0
LINE
  5
FE
100
AcDbEntity
  8
図面枠・表題欄
  6
CONTINUOUS
 62
     6
100
AcDbLine
 10
324.420467
 20
1992.855917
 30
0.0
 11
338.337255
 21
2006.772705
 31
0.0
  0
LINE
  5
FF
100
AcDbEntity
  8
図面枠・表題欄
  6
CONTINUOUS
 62
     6
100
AcDbLine
 10
325.634454
 20
1993.362798
 30
0.0
 11
337.830374
 21
2005.558718
 31
0.0
  0
LINE
  5
100
100
AcDbEntity
  8
図面枠・表題欄
  6
CONTINUOUS
 62
     6
100
AcDbLine
 10
327.016354
 20
1994.037591
 30
0.0
 11
337.155581
 21
2004.176818
 31
0.0
  0
LINE
  5
101
100
AcDbEntity
  8
図面枠・表題欄
  6
CONTINUOUS
 62
     6
100
AcDbLine
 10
328.702297
 20
1995.016426
 30
0.0
 11
336.176745
 21
2002.490875
 31
0.0
  0
LINE
  5
102
100
AcDbEntity
  8
図面枠・表題欄
  6
CONTINUOUS
 62
     6
100
AcDbLine
 10
331.384986
 20
1996.992009
 30
0.0
 11
334.201162
 21
1999.808185
 31
0.0
  0
LINE
  5
103
100
AcDbEntity
  8
図面枠・表題欄
  6
CONTINUOUS
 62
     6
100
AcDbLine
 10
319.448383
 20
2031.017347
 30
0.0
 11
325.966096
 21
2037.53506
 31
0.0
  0
LINE
  5
104
100
AcDbEntity
  8
図面枠・表題欄
  6
CONTINUOUS
 62
     6
100
AcDbLine
 10
318.870884
 20
2031.146954
 30
0.0
 11
325.479961
 21
2037.756032
 31
0.0
  0
LINE
  5
105
100
AcDbEntity
  8
図面枠・表題欄
  6
CONTINUOUS
 62
     6
100
AcDbLine
 10
318.274302
 20
2031.257479
 30
0.0
 11
324.98485
 21
2037.968028
 31
0.0
  0
LINE
  5
106
100
AcDbEntity
  8
図面枠・表題欄
  6
CONTINUOUS
 62
     6
100
AcDbLine
 10
317.657076
 20
2031.34736
 30
0.0
 11
324.480521
 21
2038.170805
 31
0.0
  0
LINE
  5
107
100
AcDbEntity
  8
図面枠・表題欄
  6
CONTINUOUS
 62
     6
100
AcDbLine
 10
292.472167
 20
2008.283772
 30
0.0
 11
299.721299
 21
2015.532903
 31
0.0
  0
LINE
  5
108
100
AcDbEntity
  8
図面枠・表題欄
  6
CONTINUOUS
 62
     6
100
AcDbLine
 10
315.660268
 20
2031.471873
 30
0.0
 11
322.9094
 21
2038.721004
 31
0.0
  0
LINE
  5
109
100
AcDbEntity
  8
図面枠・表題欄
  6
CONTINUOUS
 62
     6
100
AcDbLine
 10
317.017311
 20
2031.414702
 30
0.0
 11
323.966706
 21
2038.364097
 31
0.0
  0
LINE
  5
10A
100
AcDbEntity
  8
図面枠・表題欄
  6
CONTINUOUS
 62
     6
100
AcDbLine
 10
316.352679
 20
2031.457177
 30
0.0
 11
323.443108
 21
2038.547606
 31
0.0
  0
LINE
  5
10B
100
AcDbEntity
  8
図面枠・表題欄
  6
CONTINUOUS
 62
     6
100
AcDbLine
 10
292.309243
 20
2008.827954
 30
0.0
 11
299.738097
 21
2016.256808
 31
0.0
  0
LINE
  5
10C
100
AcDbEntity
  8
図面枠・表題欄
  6
CONTINUOUS
 62
     6
100
AcDbLine
 10
314.936363
 20
2031.455075
 30
0.0
 11
322.365218
 21
2038.883929
 31
0.0
  0
LINE
  5
10D
100
AcDbEntity
  8
図面枠・表題欄
  6
CONTINUOUS
 62
     6
100
AcDbLine
 10
292.157196
 20
2009.383014
 30
0.0
 11
299.791253
 21
2017.017071
 31
0.0
  0
LINE
  5
10E
100
AcDbEntity
  8
図面枠・表題欄
  6
CONTINUOUS
 62
     6
100
AcDbLine
 10
314.176101
 20
2031.401919
 30
0.0
 11
321.810158
 21
2039.035976
 31
0.0
  0
LINE
  5
10F
100
AcDbEntity
  8
図面枠・表題欄
  6
CONTINUOUS
 62
     6
100
AcDbLine
 10
292.016476
 20
2009.949401
 30
0.0
 11
299.887343
 21
2017.820267
 31
0.0
  0
LINE
  5
110
100
AcDbEntity
  8
図面枠・表題欄
  6
CONTINUOUS
 62
     6
100
AcDbLine
 10
313.372904
 20
2031.305829
 30
0.0
 11
321.243771
 21
2039.176695
 31
0.0
  0
LINE
  5
111
100
AcDbEntity
  8
図面枠・表題欄
  6
CONTINUOUS
 62
     6
100
AcDbLine
 10
291.887588
 20
2010.527619
 30
0.0
 11
300.035638
 21
2018.67567
 31
0.0
  0
LINE
  5
112
100
AcDbEntity
  8
図面枠・表題欄
  6
CONTINUOUS
 62
     6
100
AcDbLine
 10
312.517502
 20
2031.157533
 30
0.0
 11
320.665553
 21
2039.305584
 31
0.0
  0
LINE
  5
113
100
AcDbEntity
  8
図面枠・表題欄
  6
CONTINUOUS
 62
     6
100
AcDbLine
 10
291.667626
 20
2011.721871
 30
0.0
 11
300.552741
 21
2020.606987
 31
0.0
  0
LINE
  5
114
100
AcDbEntity
  8
図面枠・表題欄
  6
CONTINUOUS
 62
     6
100
AcDbLine
 10
310.586185
 20
2030.64043
 30
0.0
 11
319.471301
 21
2039.525546
 31
0.0
  0
LINE
  5
115
100
AcDbEntity
  8
図面枠・表題欄
  6
CONTINUOUS
 62
     6
100
AcDbLine
 10
291.577903
 20
2012.339255
 30
0.0
 11
300.984878
 21
2021.74623
 31
0.0
  0
LINE
  5
116
100
AcDbEntity
  8
図面枠・表題欄
  6
CONTINUOUS
 62
     6
100
AcDbLine
 10
309.446942
 20
2030.208294
 30
0.0
 11
318.853916
 21
2039.615268
 31
0.0
  0
LINE
  5
117
100
AcDbEntity
  8
図面枠・表題欄
  6
CONTINUOUS
 62
     6
100
AcDbLine
 10
291.771093
 20
2011.118231
 30
0.0
 11
300.249978
 21
2019.597117
 31
0.0
  0
LINE
  5
118
100
AcDbEntity
  8
図面枠・表題欄
  6
CONTINUOUS
 62
     6
100
AcDbLine
 10
311.596055
 20
2030.943193
 30
0.0
 11
320.074941
 21
2039.422079
 31
0.0
  0
LINE
  5
119
100
AcDbEntity
  8
図面枠・表題欄
  6
CONTINUOUS
 62
     6
100
AcDbLine
 10
291.50274
 20
2012.971199
 30
0.0
 11
301.639661
 21
2023.10812
 31
0.0
  0
LINE
  5
11A
100
AcDbEntity
  8
図面枠・表題欄
  6
CONTINUOUS
 62
     6
100
AcDbLine
 10
308.085052
 20
2029.553511
 30
0.0
 11
318.221973
 21
2039.690432
 31
0.0
  0
LINE
  5
11B
100
AcDbEntity
  8
図面枠・表題欄
  6
CONTINUOUS
 62
     6
100
AcDbLine
 10
320.008103
 20
2030.869961
 30
0.0
 11
326.443475
 21
2037.305332
 31
0.0
  0
LINE
  5
11C
100
AcDbEntity
  8
図面枠・表題欄
  6
CONTINUOUS
 62
     6
100
AcDbLine
 10
320.55114
 20
2030.705891
 30
0.0
 11
326.912295
 21
2037.067045
 31
0.0
  0
LINE
  5
11D
100
AcDbEntity
  8
図面枠・表題欄
  6
CONTINUOUS
 62
     6
100
AcDbLine
 10
321.078423
 20
2030.526067
 30
0.0
 11
327.372736
 21
2036.820379
 31
0.0
  0
LINE
  5
11E
100
AcDbEntity
  8
図面枠・表題欄
  6
CONTINUOUS
 62
     6
100
AcDbLine
 10
321.590744
 20
2030.331281
 30
0.0
 11
327.82496
 21
2036.565497
 31
0.0
  0
LINE
  5
11F
100
AcDbEntity
  8
図面枠・表題欄
  6
CONTINUOUS
 62
     6
100
AcDbLine
 10
322.088782
 20
2030.122212
 30
0.0
 11
328.269113
 21
2036.302543
 31
0.0
  0
LINE
  5
120
100
AcDbEntity
  8
図面枠・表題欄
  6
CONTINUOUS
 62
     6
100
AcDbLine
 10
322.573118
 20
2029.899441
 30
0.0
 11
328.705325
 21
2036.031648
 31
0.0
  0
LINE
  5
121
100
AcDbEntity
  8
図面枠・表題欄
  6
CONTINUOUS
 62
     6
100
AcDbLine
 10
323.044251
 20
2029.663468
 30
0.0
 11
329.133714
 21
2035.75293
 31
0.0
  0
LINE
  5
122
100
AcDbEntity
  8
図面枠・表題欄
  6
CONTINUOUS
 62
     6
100
AcDbLine
 10
323.502612
 20
2029.414722
 30
0.0
 11
329.554383
 21
2035.466493
 31
0.0
  0
LINE
  5
123
100
AcDbEntity
  8
図面枠・表題欄
  6
CONTINUOUS
 62
     6
100
AcDbLine
 10
323.948566
 20
2029.153569
 30
0.0
 11
329.967424
 21
2035.172427
 31
0.0
  0
LINE
  5
124
100
AcDbEntity
  8
図面枠・表題欄
  6
CONTINUOUS
 62
     6
100
AcDbLine
 10
324.382425
 20
2028.880321
 30
0.0
 11
330.372917
 21
2034.870813
 31
0.0
  0
LINE
  5
125
100
AcDbEntity
  8
図面枠・表題欄
  6
CONTINUOUS
 62
     6
100
AcDbLine
 10
324.804452
 20
2028.595241
 30
0.0
 11
330.77093
 21
2034.561719
 31
0.0
  0
LINE
  5
126
100
AcDbEntity
  8
図面枠・表題欄
  6
CONTINUOUS
 62
     6
100
AcDbLine
 10
325.214864
 20
2028.298546
 30
0.0
 11
331.161523
 21
2034.245205
 31
0.0
  0
LINE
  5
127
100
AcDbEntity
  8
図面枠・表題欄
  6
CONTINUOUS
 62
     6
100
AcDbLine
 10
325.613838
 20
2027.990414
 30
0.0
 11
331.544742
 21
2033.921318
 31
0.0
  0
LINE
  5
128
100
AcDbEntity
  8
図面枠・表題欄
  6
CONTINUOUS
 62
     6
100
AcDbLine
 10
326.001513
 20
2027.670982
 30
0.0
 11
331.920627
 21
2033.590096
 31
0.0
  0
LINE
  5
129
100
AcDbEntity
  8
図面枠・表題欄
  6
CONTINUOUS
 62
     6
100
AcDbLine
 10
326.377992
 20
2027.340354
 30
0.0
 11
332.289206
 21
2033.251568
 31
0.0
  0
LINE
  5
12A
100
AcDbEntity
  8
図面枠・表題欄
  6
CONTINUOUS
 62
     6
100
AcDbLine
 10
326.743342
 20
2026.998597
 30
0.0
 11
332.650498
 21
2032.905753
 31
0.0
  0
LINE
  5
12B
100
AcDbEntity
  8
図面枠・表題欄
  6
CONTINUOUS
 62
     6
100
AcDbLine
 10
327.097599
 20
2026.645747
 30
0.0
 11
333.004513
 21
2032.552662
 31
0.0
  0
LINE
  5
12C
100
AcDbEntity
  8
図面枠・表題欄
  6
CONTINUOUS
 62
     6
100
AcDbLine
 10
327.440765
 20
2026.281806
 30
0.0
 11
333.351252
 21
2032.192294
 31
0.0
  0
LINE
  5
12D
100
AcDbEntity
  8
図面枠・表題欄
  6
CONTINUOUS
 62
     6
100
AcDbLine
 10
327.772808
 20
2025.906743
 30
0.0
 11
333.690705
 21
2031.82464
 31
0.0
  0
LINE
  5
12E
100
AcDbEntity
  8
図面枠・表題欄
  6
CONTINUOUS
 62
     6
100
AcDbLine
 10
328.093666
 20
2025.520494
 30
0.0
 11
334.022856
 21
2031.449684
 31
0.0
  0
LINE
  5
12F
100
AcDbEntity
  8
図面枠・表題欄
  6
CONTINUOUS
 62
     6
100
AcDbLine
 10
328.40324
 20
2025.122961
 30
0.0
 11
334.347676
 21
2031.067397
 31
0.0
  0
LINE
  5
130
100
AcDbEntity
  8
図面枠・表題欄
  6
CONTINUOUS
 62
     6
100
AcDbLine
 10
328.701395
 20
2024.71401
 30
0.0
 11
334.665129
 21
2030.677743
 31
0.0
  0
LINE
  5
131
100
AcDbEntity
  8
図面枠・表題欄
  6
CONTINUOUS
 62
     6
100
AcDbLine
 10
328.987961
 20
2024.293469
 30
0.0
 11
334.975167
 21
2030.280675
 31
0.0
  0
LINE
  5
132
100
AcDbEntity
  8
図面枠・表題欄
  6
CONTINUOUS
 62
     6
100
AcDbLine
 10
329.262724
 20
2023.861125
 30
0.0
 11
335.277734
 21
2029.876135
 31
0.0
  0
LINE
  5
133
100
AcDbEntity
  8
図面枠・表題欄
  6
CONTINUOUS
 62
     6
100
AcDbLine
 10
329.525428
 20
2023.416722
 30
0.0
 11
335.572762
 21
2029.464056
 31
0.0
  0
LINE
  5
134
100
AcDbEntity
  8
図面枠・表題欄
  6
CONTINUOUS
 62
     6
100
AcDbLine
 10
329.775768
 20
2022.959955
 30
0.0
 11
335.860173
 21
2029.04436
 31
0.0
  0
LINE
  5
135
100
AcDbEntity
  8
図面枠・表題欄
  6
CONTINUOUS
 62
     6
100
AcDbLine
 10
330.013384
 20
2022.490465
 30
0.0
 11
336.139876
 21
2028.616957
 31
0.0
  0
LINE
  5
136
100
AcDbEntity
  8
図面枠・表題欄
  6
CONTINUOUS
 62
     6
100
AcDbLine
 10
330.237857
 20
2022.007831
 30
0.0
 11
336.411769
 21
2028.181743
 31
0.0
  0
LINE
  5
137
100
AcDbEntity
  8
図面枠・表題欄
  6
CONTINUOUS
 62
     6
100
AcDbLine
 10
330.448696
 20
2021.511563
 30
0.0
 11
336.675738
 21
2027.738605
 31
0.0
  0
LINE
  5
138
100
AcDbEntity
  8
図面枠・表題欄
  6
CONTINUOUS
 62
     6
100
AcDbLine
 10
330.64533
 20
2021.00109
 30
0.0
 11
336.931653
 21
2027.287413
 31
0.0
  0
LINE
  5
139
100
AcDbEntity
  8
図面枠・表題欄
  6
CONTINUOUS
 62
     6
100
AcDbLine
 10
330.827094
 20
2020.475748
 30
0.0
 11
337.17937
 21
2026.828024
 31
0.0
  0
LINE
  5
13A
100
AcDbEntity
  8
図面枠・表題欄
  6
CONTINUOUS
 62
     6
100
AcDbLine
 10
330.993212
 20
2019.934759
 30
0.0
 11
337.41873
 21
2026.360277
 31
0.0
  0
LINE
  5
13B
100
AcDbEntity
  8
図面枠・表題欄
  6
CONTINUOUS
 62
     6
100
AcDbLine
 10
292.645566
 20
2007.750064
 30
0.0
 11
299.735995
 21
2014.840492
 31
0.0
  0
LINE
  5
13C
100
AcDbEntity
  8
図面枠・表題欄
  6
CONTINUOUS
 62
     6
100
AcDbLine
 10
307.921716
 20
2023.026214
 30
0.0
 11
308.166958
 21
2023.271456
 31
0.0
  0
LINE
  5
13D
100
AcDbEntity
  8
図面枠・表題欄
  6
CONTINUOUS
 62
     6
100
AcDbLine
 10
292.829075
 20
2007.226466
 30
0.0
 11
299.778469
 21
2014.17586
 31
0.0
  0
LINE
  5
13E
100
AcDbEntity
  8
図面枠・表題欄
  6
CONTINUOUS
 62
     6
100
AcDbLine
 10
306.099869
 20
2020.49726
 30
0.0
 11
310.695912
 21
2025.093303
 31
0.0
  0
LINE
  5
13F
100
AcDbEntity
  8
図面枠・表題欄
  6
CONTINUOUS
 62
     6
100
AcDbLine
 10
293.022366
 20
2006.712651
 30
0.0
 11
299.845812
 21
2013.536096
 31
0.0
  0
LINE
  5
140
100
AcDbEntity
  8
図面枠・表題欄
  6
CONTINUOUS
 62
     6
100
AcDbLine
 10
305.542586
 20
2019.23287
 30
0.0
 11
311.960301
 21
2025.650585
 31
0.0
  0
LINE
  5
141
100
AcDbEntity
  8
図面枠・表題欄
  6
CONTINUOUS
 62
     6
100
AcDbLine
 10
293.225144
 20
2006.208321
 30
0.0
 11
299.935692
 21
2012.91887
 31
0.0
  0
LINE
  5
142
100
AcDbEntity
  8
図面枠・表題欄
  6
CONTINUOUS
 62
     6
100
AcDbLine
 10
305.223937
 20
2018.207114
 30
0.0
 11
312.986058
 21
2025.969235
 31
0.0
  0
LINE
  5
143
100
AcDbEntity
  8
図面枠・表題欄
  6
CONTINUOUS
 62
     6
100
AcDbLine
 10
293.43714
 20
2005.71321
 30
0.0
 11
300.046217
 21
2012.322288
 31
0.0
  0
LINE
  5
144
100
AcDbEntity
  8
図面枠・表題欄
  6
CONTINUOUS
 62
     6
100
AcDbLine
 10
305.033791
 20
2017.309862
 30
0.0
 11
313.88331
 21
2026.159381
 31
0.0
  0
LINE
  5
145
100
AcDbEntity
  8
図面枠・表題欄
  6
CONTINUOUS
 62
     6
100
AcDbLine
 10
293.658112
 20
2005.227075
 30
0.0
 11
300.175825
 21
2011.744788
 31
0.0
  0
LINE
  5
146
100
AcDbEntity
  8
図面枠・表題欄
  6
CONTINUOUS
 62
     6
100
AcDbLine
 10
304.929035
 20
2016.497999
 30
0.0
 11
314.695173
 21
2026.264137
 31
0.0
  0
LINE
  5
147
100
AcDbEntity
  8
図面枠・表題欄
  6
CONTINUOUS
 62
     6
100
AcDbLine
 10
293.88784
 20
2004.749697
 30
0.0
 11
300.323211
 21
2011.185068
 31
0.0
  0
LINE
  5
148
100
AcDbEntity
  8
図面枠・表題欄
  6
CONTINUOUS
 62
     6
100
AcDbLine
 10
304.887379
 20
2015.749236
 30
0.0
 11
315.443936
 21
2026.305793
 31
0.0
  0
LINE
  5
149
100
AcDbEntity
  8
図面枠・表題欄
  6
CONTINUOUS
 62
     6
100
AcDbLine
 10
294.126127
 20
2004.280877
 30
0.0
 11
300.487281
 21
2010.642031
 31
0.0
  0
LINE
  5
14A
100
AcDbEntity
  8
図面枠・表題欄
  6
CONTINUOUS
 62
     6
100
AcDbLine
 10
304.895503
 20
2015.050253
 30
0.0
 11
316.142919
 21
2026.297669
 31
0.0
  0
LINE
  5
14B
100
AcDbEntity
  8
図面枠・表題欄
  6
CONTINUOUS
 62
     6
100
AcDbLine
 10
294.372792
 20
2003.820436
 30
0.0
 11
300.667105
 21
2010.114749
 31
0.0
  0
LINE
  5
14C
100
AcDbEntity
  8
図面枠・表題欄
  6
CONTINUOUS
 62
     6
100
AcDbLine
 10
304.944699
 20
2014.392342
 30
0.0
 11
316.800829
 21
2026.248473
 31
0.0
  0
LINE
  5
14D
100
AcDbEntity
  8
図面枠・表題欄
  6
CONTINUOUS
 62
     6
100
AcDbLine
 10
294.627675
 20
2003.368212
 30
0.0
 11
300.861891
 21
2009.602427
 31
0.0
  0
LINE
  5
14E
100
AcDbEntity
  8
図面枠・表題欄
  6
CONTINUOUS
 62
     6
100
AcDbLine
 10
305.028913
 20
2013.76945
 30
0.0
 11
317.423722
 21
2026.164259
 31
0.0
  0
LINE
  5
14F
100
AcDbEntity
  8
図面枠・表題欄
  6
CONTINUOUS
 62
     6
100
AcDbLine
 10
295.161523
 20
2002.487847
 30
0.0
 11
301.293731
 21
2008.620054
 31
0.0
  0
LINE
  5
150
100
AcDbEntity
  8
図面枠・表題欄
  6
CONTINUOUS
 62
     6
100
AcDbLine
 10
305.285902
 20
2012.612225
 30
0.0
 11
318.580947
 21
2025.90727
 31
0.0
  0
LINE
  5
151
100
AcDbEntity
  8
図面枠・表題欄
  6
CONTINUOUS
 62
     6
100
AcDbLine
 10
295.440241
 20
2002.059458
 30
0.0
 11
301.529704
 21
2008.14892
 31
0.0
  0
LINE
  5
152
100
AcDbEntity
  8
図面枠・表題欄
  6
CONTINUOUS
 62
     6
100
AcDbLine
 10
305.452841
 20
2012.072058
 30
0.0
 11
319.121114
 21
2025.74033
 31
0.0
  0
LINE
  5
153
100
AcDbEntity
  8
図面枠・表題欄
  6
CONTINUOUS
 62
     6
100
AcDbLine
 10
295.726679
 20
2001.638789
 30
0.0
 11
301.77845
 21
2007.69056
 31
0.0
  0
LINE
  5
154
100
AcDbEntity
  8
図面枠・表題欄
  6
CONTINUOUS
 62
     6
100
AcDbLine
 10
305.642583
 20
2011.554692
 30
0.0
 11
319.63848
 21
2025.550589
 31
0.0
  0
LINE
  5
155
100
AcDbEntity
  8
図面枠・表題欄
  6
CONTINUOUS
 62
     6
100
AcDbLine
 10
296.020745
 20
2001.225748
 30
0.0
 11
302.039603
 21
2007.244606
 31
0.0
  0
LINE
  5
156
100
AcDbEntity
  8
図面枠・表題欄
  6
CONTINUOUS
 62
     6
100
AcDbLine
 10
305.853556
 20
2011.058559
 30
0.0
 11
320.134613
 21
2025.339616
 31
0.0
  0
LINE
  5
157
100
AcDbEntity
  8
図面枠・表題欄
  6
CONTINUOUS
 62
     6
100
AcDbLine
 10
296.322359
 20
2000.820255
 30
0.0
 11
302.31285
 21
2006.810746
 31
0.0
  0
LINE
  5
158
100
AcDbEntity
  8
図面枠・表題欄
  6
CONTINUOUS
 62
     6
100
AcDbLine
 10
306.084511
 20
2010.582407
 30
0.0
 11
320.610765
 21
2025.108661
 31
0.0
  0
LINE
  5
159
100
AcDbEntity
  8
図面枠・表題欄
  6
CONTINUOUS
 62
     6
100
AcDbLine
 10
294.890629
 20
2002.924059
 30
0.0
 11
301.07096
 21
2009.10439
 31
0.0
  0
LINE
  5
15A
100
AcDbEntity
  8
図面枠・表題欄
  6
CONTINUOUS
 62
     6
100
AcDbLine
 10
305.143747
 20
2013.177177
 30
0.0
 11
318.015995
 21
2026.049425
 31
0.0
  0
LINE
  5
15B
100
AcDbEntity
  8
図面枠・表題欄
  6
CONTINUOUS
 62
     6
100
AcDbLine
 10
296.947967
 20
2000.031649
 30
0.0
 11
302.894625
 21
2005.978308
 31
0.0
  0
LINE
  5
15C
100
AcDbEntity
  8
図面枠・表題欄
  6
CONTINUOUS
 62
     6
100
AcDbLine
 10
306.602581
 20
2009.686263
 30
0.0
 11
321.506908
 21
2024.590591
 31
0.0
  0
LINE
  5
15D
100
AcDbEntity
  8
図面枠・表題欄
  6
CONTINUOUS
 62
     6
100
AcDbLine
 10
296.631452
 20
2000.422242
 30
0.0
 11
302.597931
 21
2006.38872
 31
0.0
  0
LINE
  5
15E
100
AcDbEntity
  8
図面枠・表題欄
  6
CONTINUOUS
 62
     6
100
AcDbLine
 10
306.33445
 20
2010.125239
 30
0.0
 11
321.067933
 21
2024.858722
 31
0.0
  0
LINE
  5
15F
100
AcDbEntity
  8
図面枠・表題欄
  6
CONTINUOUS
 62
     6
100
AcDbLine
 10
297.271854
 20
1999.64843
 30
0.0
 11
303.202758
 21
2005.579334
 31
0.0
  0
LINE
  5
160
100
AcDbEntity
  8
図面枠・表題欄
  6
CONTINUOUS
 62
     6
100
AcDbLine
 10
306.888284
 20
2009.26486
 30
0.0
 11
321.928312
 21
2024.304888
 31
0.0
  0
LINE
  5
161
100
AcDbEntity
  8
図面枠・表題欄
  6
CONTINUOUS
 62
     6
100
AcDbLine
 10
297.603076
 20
1999.272545
 30
0.0
 11
303.52219
 21
2005.191659
 31
0.0
  0
LINE
  5
162
100
AcDbEntity
  8
図面枠・表題欄
  6
CONTINUOUS
 62
     6
100
AcDbLine
 10
307.191087
 20
2008.860556
 30
0.0
 11
322.332616
 21
2024.002085
 31
0.0
  0
LINE
  5
163
100
AcDbEntity
  8
図面枠・表題欄
  6
CONTINUOUS
 62
     6
100
AcDbLine
 10
297.941604
 20
1998.903966
 30
0.0
 11
303.852818
 21
2004.81518
 31
0.0
  0
LINE
  5
164
100
AcDbEntity
  8
図面枠・表題欄
  6
CONTINUOUS
 62
     6
100
AcDbLine
 10
307.510647
 20
2008.473009
 30
0.0
 11
322.720163
 21
2023.682525
 31
0.0
  0
LINE
  5
165
100
AcDbEntity
  8
図面枠・表題欄
  6
CONTINUOUS
 62
     6
100
AcDbLine
 10
298.287418
 20
1998.542674
 30
0.0
 11
304.194575
 21
2004.44983
 31
0.0
  0
LINE
  5
166
100
AcDbEntity
  8
図面枠・表題欄
  6
CONTINUOUS
 62
     6
100
AcDbLine
 10
307.84674
 20
2008.101996
 30
0.0
 11
323.091176
 21
2023.346432
 31
0.0
  0
LINE
  5
167
100
AcDbEntity
  8
図面枠・表題欄
  6
CONTINUOUS
 62
     6
100
AcDbLine
 10
298.64051
 20
1998.188659
 30
0.0
 11
304.547424
 21
2004.095573
 31
0.0
  0
LINE
  5
168
100
AcDbEntity
  8
図面枠・表題欄
  6
CONTINUOUS
 62
     6
100
AcDbLine
 10
308.199253
 20
2007.747402
 30
0.0
 11
323.44577
 21
2022.993919
 31
0.0
  0
LINE
  5
169
100
AcDbEntity
  8
図面枠・表題欄
  6
CONTINUOUS
 62
     6
100
AcDbLine
 10
299.000878
 20
1997.84192
 30
0.0
 11
304.911365
 21
2003.752407
 31
0.0
  0
LINE
  5
16A
100
AcDbEntity
  8
図面枠・表題欄
  6
CONTINUOUS
 62
     6
100
AcDbLine
 10
308.568178
 20
2007.40922
 30
0.0
 11
323.783951
 21
2022.624993
 31
0.0
  0
LINE
  5
16B
100
AcDbEntity
  8
図面枠・表題欄
  6
CONTINUOUS
 62
     6
100
AcDbLine
 10
299.368531
 20
1997.502466
 30
0.0
 11
305.286428
 21
2003.420363
 31
0.0
  0
LINE
  5
16C
100
AcDbEntity
  8
図面枠・表題欄
  6
CONTINUOUS
 62
     6
100
AcDbLine
 10
308.953617
 20
2007.087552
 30
0.0
 11
324.10562
 21
2022.239555
 31
0.0
  0
LINE
  5
16D
100
AcDbEntity
  8
図面枠・表題欄
  6
CONTINUOUS
 62
     6
100
AcDbLine
 10
299.743488
 20
1997.170316
 30
0.0
 11
305.672677
 21
2003.099506
 31
0.0
  0
LINE
  5
16E
100
AcDbEntity
  8
図面枠・表題欄
  6
CONTINUOUS
 62
     6
100
AcDbLine
 10
309.355777
 20
2006.782606
 30
0.0
 11
324.410566
 21
2021.837394
 31
0.0
  0
LINE
  5
16F
100
AcDbEntity
  8
図面枠・表題欄
  6
CONTINUOUS
 62
     6
100
AcDbLine
 10
300.125774
 20
1996.845496
 30
0.0
 11
306.07021
 21
2002.789932
 31
0.0
  0
LINE
  5
170
100
AcDbEntity
  8
図面枠・表題欄
  6
CONTINUOUS
 62
     6
100
AcDbLine
 10
309.774987
 20
2006.494709
 30
0.0
 11
324.698463
 21
2021.418185
 31
0.0
  0
LINE
  5
171
100
AcDbEntity
  8
図面枠・表題欄
  6
CONTINUOUS
 62
     6
100
AcDbLine
 10
300.515428
 20
1996.528043
 30
0.0
 11
306.479162
 21
2002.491776
 31
0.0
  0
LINE
  5
172
100
AcDbEntity
  8
図面枠・表題欄
  6
CONTINUOUS
 62
     6
100
AcDbLine
 10
310.211702
 20
2006.224316
 30
0.0
 11
324.968856
 21
2020.98147
 31
0.0
  0
LINE
  5
173
100
AcDbEntity
  8
図面枠・表題欄
  6
CONTINUOUS
 62
     6
100
AcDbLine
 10
301.317037
 20
1995.915438
 30
0.0
 11
307.332047
 21
2001.930448
 31
0.0
  0
LINE
  5
174
100
AcDbEntity
  8
図面枠・表題欄
  6
CONTINUOUS
 62
     6
100
AcDbLine
 10
311.140212
 20
2005.738613
 30
0.0
 11
325.454559
 21
2020.05296
 31
0.0
  0
LINE
  5
175
100
AcDbEntity
  8
図面枠・表題欄
  6
CONTINUOUS
 62
     6
100
AcDbLine
 10
301.729115
 20
1995.62041
 30
0.0
 11
307.77645
 21
2001.667744
 31
0.0
  0
LINE
  5
176
100
AcDbEntity
  8
図面枠・表題欄
  6
CONTINUOUS
 62
     6
100
AcDbLine
 10
311.633746
 20
2005.52504
 30
0.0
 11
325.668131
 21
2019.559426
 31
0.0
  0
LINE
  5
177
100
AcDbEntity
  8
図面枠・表題欄
  6
CONTINUOUS
 62
     6
100
AcDbLine
 10
300.912497
 20
1996.218005
 30
0.0
 11
306.899703
 21
2002.205211
 31
0.0
  0
LINE
  5
178
100
AcDbEntity
  8
図面枠・表題欄
  6
CONTINUOUS
 62
     6
100
AcDbLine
 10
310.66652
 20
2005.972028
 30
0.0
 11
325.221143
 21
2020.526651
 31
0.0
  0
LINE
  5
179
100
AcDbEntity
  8
図面枠・表題欄
  6
CONTINUOUS
 62
     6
100
AcDbLine
 10
302.576215
 20
1995.053296
 30
0.0
 11
308.702707
 21
2001.179788
 31
0.0
  0
LINE
  5
17A
100
AcDbEntity
  8
図面枠・表題欄
  6
CONTINUOUS
 62
     6
100
AcDbLine
 10
312.68551
 20
2005.162591
 30
0.0
 11
326.030581
 21
2018.507661
 31
0.0
  0
LINE
  5
17B
100
AcDbEntity
  8
図面枠・表題欄
  6
CONTINUOUS
 62
     6
100
AcDbLine
 10
303.011428
 20
1994.781402
 30
0.0
 11
309.185341
 21
2000.955315
 31
0.0
  0
LINE
  5
17C
100
AcDbEntity
  8
図面枠・表題欄
  6
CONTINUOUS
 62
     6
100
AcDbLine
 10
313.247189
 20
2005.017163
 30
0.0
 11
326.176008
 21
2017.945982
 31
0.0
  0
LINE
  5
17D
100
AcDbEntity
  8
図面枠・表題欄
  6
CONTINUOUS
 62
     6
100
AcDbLine
 10
303.454566
 20
1994.517434
 30
0.0
 11
309.681609
 21
2000.744476
 31
0.0
  0
LINE
  5
17E
100
AcDbEntity
  8
図面枠・表題欄
  6
CONTINUOUS
 62
     6
100
AcDbLine
 10
313.83583
 20
2004.898697
 30
0.0
 11
326.294474
 21
2017.357342
 31
0.0
  0
LINE
  5
17F
100
AcDbEntity
  8
図面枠・表題欄
  6
CONTINUOUS
 62
     6
100
AcDbLine
 10
302.148812
 20
1995.332999
 30
0.0
 11
308.233217
 21
2001.417404
 31
0.0
  0
LINE
  5
180
100
AcDbEntity
  8
図面枠・表題欄
  6
CONTINUOUS
 62
     6
100
AcDbLine
 10
312.148337
 20
2005.332525
 30
0.0
 11
325.860647
 21
2019.044834
 31
0.0
  0
LINE
  5
181
100
AcDbEntity
  8
図面枠・表題欄
  6
CONTINUOUS
 62
     6
100
AcDbLine
 10
304.365148
 20
1994.013802
 30
0.0
 11
310.717424
 21
2000.366078
 31
0.0
  0
LINE
  5
182
100
AcDbEntity
  8
図面枠・表題欄
  6
CONTINUOUS
 62
     6
100
AcDbLine
 10
315.107792
 20
2004.756446
 30
0.0
 11
326.436726
 21
2016.08538
 31
0.0
  0
LINE
  5
183
100
AcDbEntity
  8
図面枠・表題欄
  6
CONTINUOUS
 62
     6
100
AcDbLine
 10
303.905758
 20
1994.261519
 30
0.0
 11
310.192082
 21
2000.547842
 31
0.0
  0
LINE
  5
184
100
AcDbEntity
  8
図面枠・表題欄
  6
CONTINUOUS
 62
     6
100
AcDbLine
 10
314.45462
 20
2004.81038
 30
0.0
 11
326.382792
 21
2016.738552
 31
0.0
  0
LINE
  5
185
100
AcDbEntity
  8
図面枠・表題欄
  6
CONTINUOUS
 62
     6
100
AcDbLine
 10
304.832895
 20
1993.774442
 30
0.0
 11
311.258413
 21
2000.19996
 31
0.0
  0
LINE
  5
186
100
AcDbEntity
  8
図面枠・表題欄
  6
CONTINUOUS
 62
     6
100
AcDbLine
 10
315.801148
 20
2004.742695
 30
0.0
 11
326.450477
 21
2015.392024
 31
0.0
  0
LINE
  5
187
100
AcDbEntity
  8
図面枠・表題欄
  6
CONTINUOUS
 62
     6
100
AcDbLine
 10
305.309177
 20
1993.543617
 30
0.0
 11
311.815959
 21
2000.050399
 31
0.0
  0
LINE
  5
188
100
AcDbEntity
  8
図面枠・表題欄
  6
CONTINUOUS
 62
     6
100
AcDbLine
 10
305.794188
 20
1993.321522
 30
0.0
 11
312.391134
 21
1999.918468
 31
0.0
  0
LINE
  5
189
100
AcDbEntity
  8
図面枠・表題欄
  6
CONTINUOUS
 62
     6
100
AcDbLine
 10
306.288147
 20
1993.108374
 30
0.0
 11
312.985214
 21
1999.80544
 31
0.0
  0
LINE
  5
18A
100
AcDbEntity
  8
図面枠・表題欄
  6
CONTINUOUS
 62
     6
100
AcDbLine
 10
306.791292
 20
1992.904412
 30
0.0
 11
313.599722
 21
1999.712842
 31
0.0
  0
LINE
  5
18B
100
AcDbEntity
  8
図面枠・表題欄
  6
CONTINUOUS
 62
     6
100
AcDbLine
 10
307.303888
 20
1992.709901
 30
0.0
 11
314.236507
 21
1999.64252
 31
0.0
  0
LINE
  5
18C
100
AcDbEntity
  8
図面枠・表題欄
  6
CONTINUOUS
 62
     6
100
AcDbLine
 10
307.826227
 20
1992.525133
 30
0.0
 11
314.897836
 21
1999.596742
 31
0.0
  0
LINE
  5
18D
100
AcDbEntity
  8
図面枠・表題欄
  6
CONTINUOUS
 62
     6
100
AcDbLine
 10
308.358632
 20
1992.350431
 30
0.0
 11
315.586535
 21
1999.578334
 31
0.0
  0
LINE
  5
18E
100
AcDbEntity
  8
図面枠・表題欄
  6
CONTINUOUS
 62
     6
100
AcDbLine
 10
331.614838
 20
2015.606637
 30
0.0
 11
338.84274
 21
2022.83454
 31
0.0
  0
LINE
  5
18F
100
AcDbEntity
  8
図面枠・表題欄
  6
CONTINUOUS
 62
     6
100
AcDbLine
 10
308.901463
 20
1992.186156
 30
0.0
 11
316.306201
 21
1999.590894
 31
0.0
  0
LINE
  5
190
100
AcDbEntity
  8
図面枠・表題欄
  6
CONTINUOUS
 62
     6
100
AcDbLine
 10
331.602278
 20
2014.886971
 30
0.0
 11
339.007016
 21
2022.291709
 31
0.0
  0
LINE
  5
191
100
AcDbEntity
  8
図面枠・表題欄
  6
CONTINUOUS
 62
     6
100
AcDbLine
 10
309.455118
 20
1992.032704
 30
0.0
 11
317.061528
 21
1999.639114
 31
0.0
  0
LINE
  5
192
100
AcDbEntity
  8
図面枠・表題欄
  6
CONTINUOUS
 62
     6
100
AcDbLine
 10
331.554058
 20
2014.131644
 30
0.0
 11
339.160468
 21
2021.738053
 31
0.0
  0
LINE
  5
193
100
AcDbEntity
  8
図面枠・表題欄
  6
CONTINUOUS
 62
     6
100
AcDbLine
 10
310.020041
 20
1991.89052
 30
0.0
 11
317.858831
 21
1999.72931
 31
0.0
  0
LINE
  5
194
100
AcDbEntity
  8
図面枠・表題欄
  6
CONTINUOUS
 62
     6
100
AcDbLine
 10
331.463862
 20
2013.334341
 30
0.0
 11
339.302651
 21
2021.17313
 31
0.0
  0
LINE
  5
195
100
AcDbEntity
  8
図面枠・表題欄
  6
CONTINUOUS
 62
     6
100
AcDbLine
 10
310.596728
 20
1991.7601
 30
0.0
 11
318.706961
 21
1999.870334
 31
0.0
  0
LINE
  5
196
100
AcDbEntity
  8
図面枠・表題欄
  6
CONTINUOUS
 62
     6
100
AcDbLine
 10
331.322838
 20
2012.48621
 30
0.0
 11
339.433071
 21
2020.596444
 31
0.0
  0
LINE
  5
197
100
AcDbEntity
  8
図面枠・表題欄
  6
CONTINUOUS
 62
     6
100
AcDbLine
 10
311.787682
 20
1991.53684
 30
0.0
 11
320.61595
 21
2000.365108
 31
0.0
  0
LINE
  5
198
100
AcDbEntity
  8
図面枠・表題欄
  6
CONTINUOUS
 62
     6
100
AcDbLine
 10
330.828063
 20
2010.577222
 30
0.0
 11
339.656331
 21
2019.40549
 31
0.0
  0
LINE
  5
199
100
AcDbEntity
  8
図面枠・表題欄
  6
CONTINUOUS
 62
     6
100
AcDbLine
 10
311.185733
 20
1991.641999
 30
0.0
 11
319.619023
 21
2000.075288
 31
0.0
  0
LINE
  5
19A
100
AcDbEntity
  8
図面枠・表題欄
  6
CONTINUOUS
 62
     6
100
AcDbLine
 10
331.117884
 20
2011.574149
 30
0.0
 11
339.551173
 21
2020.007438
 31
0.0
  0
LINE
  5
19B
100
AcDbEntity
  8
図面枠・表題欄
  6
CONTINUOUS
 62
     6
100
AcDbLine
 10
312.403279
 20
1991.445331
 30
0.0
 11
321.73532
 21
2000.777372
 31
0.0
  0
LINE
  5
19C
100
AcDbEntity
  8
図面枠・表題欄
  6
CONTINUOUS
 62
     6
100
AcDbLine
 10
330.4158
 20
2009.457852
 30
0.0
 11
339.747841
 21
2018.789893
 31
0.0
  0
LINE
  5
19D
100
AcDbEntity
  8
図面枠・表題欄
  6
CONTINUOUS
 62
     6
100
AcDbLine
 10
313.033325
 20
1991.36827
 30
0.0
 11
323.059611
 21
2001.394556
 31
0.0
  0
LINE
  5
19E
100
AcDbEntity
  8
図面枠・表題欄
  6
CONTINUOUS
 62
     6
100
AcDbLine
 10
329.798616
 20
2008.133561
 30
0.0
 11
339.824901
 21
2018.159846
 31
0.0
  0
LINE
  5
19F
100
AcDbEntity
  8
図面枠・表題欄
  6
CONTINUOUS
 62
     6
100
AcDbLine
 10
313.678736
 20
1991.306574
 30
0.0
 11
324.880191
 21
2002.508029
 31
0.0
  0
LINE
  5
1A0
100
AcDbEntity
  8
図面枠・表題欄
  6
CONTINUOUS
 62
     6
100
AcDbLine
 10
328.685142
 20
2006.312981
 30
0.0
 11
339.886597
 21
2017.514436
 31
0.0
  0
LINE
  5
1A1
100
AcDbEntity
  8
図面枠・表題欄
  6
CONTINUOUS
 62
     6
100
AcDbLine
 10
320.458138
 20
2005.864151
 30
0.0
 11
325.329021
 21
2010.735034
 31
0.0
  0
LINE
  5
1A2
100
AcDbEntity
  8
図面枠・表題欄
  6
CONTINUOUS
 62
     6
100
AcDbLine
 10
331.550651
 20
2016.956664
 30
0.0
 11
338.483271
 21
2023.889284
 31
0.0
  0
LINE
  5
1A3
100
AcDbEntity
  8
図面枠・表題欄
  6
CONTINUOUS
 62
     6
100
AcDbLine
 10
319.236163
 20
2005.349283
 30
0.0
 11
325.843889
 21
2011.957009
 31
0.0
  0
LINE
  5
1A4
100
AcDbEntity
  8
図面枠・表題欄
  6
CONTINUOUS
 62
     6
100
AcDbLine
 10
331.48033
 20
2017.593449
 30
0.0
 11
338.28876
 21
2024.40188
 31
0.0
  0
LINE
  5
1A5
100
AcDbEntity
  8
図面枠・表題欄
  6
CONTINUOUS
 62
     6
100
AcDbLine
 10
322.412123
 20
2007.111029
 30
0.0
 11
324.082143
 21
2008.781049
 31
0.0
  0
LINE
  5
1A6
100
AcDbEntity
  8
図面枠・表題欄
  6
CONTINUOUS
 62
     6
100
AcDbLine
 10
331.59643
 20
2016.295336
 30
0.0
 11
338.668039
 21
2023.366945
 31
0.0
  0
LINE
  5
1A7
100
AcDbEntity
  8
図面枠・表題欄
  6
CONTINUOUS
 62
     6
100
AcDbLine
 10
318.230509
 20
2005.050736
 30
0.0
 11
326.142436
 21
2012.962663
 31
0.0
  0
LINE
  5
1A8
100
AcDbEntity
  8
図面枠・表題欄
  6
CONTINUOUS
 62
     6
100
AcDbLine
 10
331.387732
 20
2018.207958
 30
0.0
 11
338.084798
 21
2024.905025
 31
0.0
  0
LINE
  5
1A9
100
AcDbEntity
  8
図面枠・表題欄
  6
CONTINUOUS
 62
     6
100
AcDbLine
 10
316.542979
 20
2004.777419
 30
0.0
 11
326.415753
 21
2014.650193
 31
0.0
  0
LINE
  5
1AA
100
AcDbEntity
  8
図面枠・表題欄
  6
CONTINUOUS
 62
     6
100
AcDbLine
 10
331.142773
 20
2019.377213
 30
0.0
 11
337.649555
 21
2025.883995
 31
0.0
  0
LINE
  5
1AB
100
AcDbEntity
  8
図面枠・表題欄
  6
CONTINUOUS
 62
     6
100
AcDbLine
 10
317.345851
 20
2004.873184
 30
0.0
 11
326.319987
 21
2013.847321
 31
0.0
  0
LINE
  5
1AC
100
AcDbEntity
  8
図面枠・表題欄
  6
CONTINUOUS
 62
     6
100
AcDbLine
 10
331.274704
 20
2018.802037
 30
0.0
 11
337.87165
 21
2025.398983
 31
0.0
  0
LINE
  5
1AD
100
AcDbEntity
  8
図面枠・表題欄
  6
CONTINUOUS
 62
     6
100
AcDbLine
 10
336.532394
 20
2033.602259
 30
0.0
 11
336.680134
 21
2033.75
 31
0.0
  0
LINE
  5
1AE
100
AcDbEntity
  8
図面枠・表題欄
  6
CONTINUOUS
 62
     6
100
AcDbLine
 10
336.879066
 20
2033.241825
 30
0.0
 11
337.387241
 21
2033.75
 31
0.0
  0
LINE
  5
1AF
100
AcDbEntity
  8
図面枠・表題欄
  6
CONTINUOUS
 62
     6
100
AcDbLine
 10
337.218881
 20
2032.874534
 30
0.0
 11
338.094348
 21
2033.75
 31
0.0
  0
LINE
  5
1B0
100
AcDbEntity
  8
図面枠・表題欄
  6
CONTINUOUS
 62
     6
100
AcDbLine
 10
337.551825
 20
2032.500371
 30
0.0
 11
338.801455
 21
2033.75
 31
0.0
  0
LINE
  5
1B1
100
AcDbEntity
  8
図面枠・表題欄
  6
CONTINUOUS
 62
     6
100
AcDbLine
 10
337.877874
 20
2032.119313
 30
0.0
 11
339.508561
 21
2033.75
 31
0.0
  0
LINE
  5
1B2
100
AcDbEntity
  8
図面枠・表題欄
  6
CONTINUOUS
 62
     6
100
AcDbLine
 10
338.196997
 20
2031.731329
 30
0.0
 11
340.215668
 21
2033.75
 31
0.0
  0
LINE
  5
1B3
100
AcDbEntity
  8
図面枠・表題欄
  6
CONTINUOUS
 62
     6
100
AcDbLine
 10
338.509153
 20
2031.336378
 30
0.0
 11
340.922775
 21
2033.75
 31
0.0
  0
LINE
  5
1B4
100
AcDbEntity
  8
図面枠・表題欄
  6
CONTINUOUS
 62
     6
100
AcDbLine
 10
338.814296
 20
2030.934414
 30
0.0
 11
341.629882
 21
2033.75
 31
0.0
  0
LINE
  5
1B5
100
AcDbEntity
  8
図面枠・表題欄
  6
CONTINUOUS
 62
     6
100
AcDbLine
 10
339.112368
 20
2030.52538
 30
0.0
 11
342.336989
 21
2033.75
 31
0.0
  0
LINE
  5
1B6
100
AcDbEntity
  8
図面枠・表題欄
  6
CONTINUOUS
 62
     6
100
AcDbLine
 10
339.403305
 20
2030.109209
 30
0.0
 11
343.044095
 21
2033.75
 31
0.0
  0
LINE
  5
1B7
100
AcDbEntity
  8
図面枠・表題欄
  6
CONTINUOUS
 62
     6
100
AcDbLine
 10
339.68703
 20
2029.685828
 30
0.0
 11
343.751202
 21
2033.75
 31
0.0
  0
LINE
  5
1B8
100
AcDbEntity
  8
図面枠・表題欄
  6
CONTINUOUS
 62
     6
100
AcDbLine
 10
339.96346
 20
2029.255151
 30
0.0
 11
344.458309
 21
2033.75
 31
0.0
  0
LINE
  5
1B9
100
AcDbEntity
  8
図面枠・表題欄
  6
CONTINUOUS
 62
     6
100
AcDbLine
 10
340.232498
 20
2028.817082
 30
0.0
 11
345.165416
 21
2033.75
 31
0.0
  0
LINE
  5
1BA
100
AcDbEntity
  8
図面枠・表題欄
  6
CONTINUOUS
 62
     6
100
AcDbLine
 10
340.494039
 20
2028.371516
 30
0.0
 11
345.872522
 21
2033.75
 31
0.0
  0
LINE
  5
1BB
100
AcDbEntity
  8
図面枠・表題欄
  6
CONTINUOUS
 62
     6
100
AcDbLine
 10
340.747964
 20
2027.918335
 30
0.0
 11
346.579629
 21
2033.75
 31
0.0
  0
LINE
  5
1BC
100
AcDbEntity
  8
図面枠・表題欄
  6
CONTINUOUS
 62
     6
100
AcDbLine
 10
341.211736
 20
2027.675
 30
0.0
 11
347.286736
 21
2033.75
 31
0.0
  0
LINE
  5
1BD
100
AcDbEntity
  8
図面枠・表題欄
  6
CONTINUOUS
 62
     6
100
AcDbLine
 10
341.918843
 20
2027.675
 30
0.0
 11
347.993843
 21
2033.75
 31
0.0
  0
LINE
  5
1BE
100
AcDbEntity
  8
図面枠・表題欄
  6
CONTINUOUS
 62
     6
100
AcDbLine
 10
342.62595
 20
2027.675
 30
0.0
 11
348.70095
 21
2033.75
 31
0.0
  0
LINE
  5
1BF
100
AcDbEntity
  8
図面枠・表題欄
  6
CONTINUOUS
 62
     6
100
AcDbLine
 10
343.333056
 20
2027.675
 30
0.0
 11
349.408056
 21
2033.75
 31
0.0
  0
LINE
  5
1C0
100
AcDbEntity
  8
図面枠・表題欄
  6
CONTINUOUS
 62
     6
100
AcDbLine
 10
344.040163
 20
2027.675
 30
0.0
 11
350.115163
 21
2033.75
 31
0.0
  0
LINE
  5
1C1
100
AcDbEntity
  8
図面枠・表題欄
  6
CONTINUOUS
 62
     6
100
AcDbLine
 10
344.74727
 20
2027.675
 30
0.0
 11
350.82227
 21
2033.75
 31
0.0
  0
LINE
  5
1C2
100
AcDbEntity
  8
図面枠・表題欄
  6
CONTINUOUS
 62
     6
100
AcDbLine
 10
345.454377
 20
2027.675
 30
0.0
 11
351.529377
 21
2033.75
 31
0.0
  0
LINE
  5
1C3
100
AcDbEntity
  8
図面枠・表題欄
  6
CONTINUOUS
 62
     6
100
AcDbLine
 10
346.161484
 20
2027.675
 30
0.0
 11
352.236484
 21
2033.75
 31
0.0
  0
LINE
  5
1C4
100
AcDbEntity
  8
図面枠・表題欄
  6
CONTINUOUS
 62
     6
100
AcDbLine
 10
346.86859
 20
2027.675
 30
0.0
 11
352.94359
 21
2033.75
 31
0.0
  0
LINE
  5
1C5
100
AcDbEntity
  8
図面枠・表題欄
  6
CONTINUOUS
 62
     6
100
AcDbLine
 10
347.575697
 20
2027.675
 30
0.0
 11
353.650697
 21
2033.75
 31
0.0
  0
LINE
  5
1C6
100
AcDbEntity
  8
図面枠・表題欄
  6
CONTINUOUS
 62
     6
100
AcDbLine
 10
348.282804
 20
2027.675
 30
0.0
 11
354.357804
 21
2033.75
 31
0.0
  0
LINE
  5
1C7
100
AcDbEntity
  8
図面枠・表題欄
  6
CONTINUOUS
 62
     6
100
AcDbLine
 10
348.989911
 20
2027.675
 30
0.0
 11
355.064911
 21
2033.75
 31
0.0
  0
LINE
  5
1C8
100
AcDbEntity
  8
図面枠・表題欄
  6
CONTINUOUS
 62
     6
100
AcDbLine
 10
349.697017
 20
2027.675
 30
0.0
 11
355.772017
 21
2033.75
 31
0.0
  0
LINE
  5
1C9
100
AcDbEntity
  8
図面枠・表題欄
  6
CONTINUOUS
 62
     6
100
AcDbLine
 10
350.404124
 20
2027.675
 30
0.0
 11
356.479124
 21
2033.75
 31
0.0
  0
LINE
  5
1CA
100
AcDbEntity
  8
図面枠・表題欄
  6
CONTINUOUS
 62
     6
100
AcDbLine
 10
351.111231
 20
2027.675
 30
0.0
 11
357.186231
 21
2033.75
 31
0.0
  0
LINE
  5
1CB
100
AcDbEntity
  8
図面枠・表題欄
  6
CONTINUOUS
 62
     6
100
AcDbLine
 10
351.818338
 20
2027.675
 30
0.0
 11
357.893338
 21
2033.75
 31
0.0
  0
LINE
  5
1CC
100
AcDbEntity
  8
図面枠・表題欄
  6
CONTINUOUS
 62
     6
100
AcDbLine
 10
352.525445
 20
2027.675
 30
0.0
 11
358.600445
 21
2033.75
 31
0.0
  0
LINE
  5
1CD
100
AcDbEntity
  8
図面枠・表題欄
  6
CONTINUOUS
 62
     6
100
AcDbLine
 10
353.232551
 20
2027.675
 30
0.0
 11
359.307551
 21
2033.75
 31
0.0
  0
LINE
  5
1CE
100
AcDbEntity
  8
図面枠・表題欄
  6
CONTINUOUS
 62
     6
100
AcDbLine
 10
353.939658
 20
2027.675
 30
0.0
 11
360.014658
 21
2033.75
 31
0.0
  0
LINE
  5
1CF
100
AcDbEntity
  8
図面枠・表題欄
  6
CONTINUOUS
 62
     6
100
AcDbLine
 10
354.646765
 20
2027.675
 30
0.0
 11
360.721765
 21
2033.75
 31
0.0
  0
LINE
  5
1D0
100
AcDbEntity
  8
図面枠・表題欄
  6
CONTINUOUS
 62
     6
100
AcDbLine
 10
355.353872
 20
2027.675
 30
0.0
 11
361.428872
 21
2033.75
 31
0.0
  0
LINE
  5
1D1
100
AcDbEntity
  8
図面枠・表題欄
  6
CONTINUOUS
 62
     6
100
AcDbLine
 10
356.060978
 20
2027.675
 30
0.0
 11
362.135978
 21
2033.75
 31
0.0
  0
LINE
  5
1D2
100
AcDbEntity
  8
図面枠・表題欄
  6
CONTINUOUS
 62
     6
100
AcDbLine
 10
356.768085
 20
2027.675
 30
0.0
 11
362.843085
 21
2033.75
 31
0.0
  0
LINE
  5
1D3
100
AcDbEntity
  8
図面枠・表題欄
  6
CONTINUOUS
 62
     6
100
AcDbLine
 10
357.475192
 20
2027.675
 30
0.0
 11
363.550192
 21
2033.75
 31
0.0
  0
LINE
  5
1D4
100
AcDbEntity
  8
図面枠・表題欄
  6
CONTINUOUS
 62
     6
100
AcDbLine
 10
353.409283
 20
2022.901984
 30
0.0
 11
364.257299
 21
2033.75
 31
0.0
  0
LINE
  5
1D5
100
AcDbEntity
  8
図面枠・表題欄
  6
CONTINUOUS
 62
     6
100
AcDbLine
 10
348.459535
 20
2017.245129
 30
0.0
 11
364.964406
 21
2033.75
 31
0.0
  0
LINE
  5
1D6
100
AcDbEntity
  8
図面枠・表題欄
  6
CONTINUOUS
 62
     6
100
AcDbLine
 10
343.628629
 20
2011.707116
 30
0.0
 11
365.671512
 21
2033.75
 31
0.0
  0
LINE
  5
1D7
100
AcDbEntity
  8
図面枠・表題欄
  6
CONTINUOUS
 62
     6
100
AcDbLine
 10
343.301324
 20
2010.672705
 30
0.0
 11
366.378619
 21
2033.75
 31
0.0
  0
LINE
  5
1D8
100
AcDbEntity
  8
図面枠・表題欄
  6
CONTINUOUS
 62
     6
100
AcDbLine
 10
342.97402
 20
2009.638294
 30
0.0
 11
366.698172
 21
2033.362446
 31
0.0
  0
LINE
  5
1D9
100
AcDbEntity
  8
図面枠・表題欄
  6
CONTINUOUS
 62
     6
100
AcDbLine
 10
342.646716
 20
2008.603883
 30
0.0
 11
366.698172
 21
2032.655339
 31
0.0
  0
LINE
  5
1DA
100
AcDbEntity
  8
図面枠・表題欄
  6
CONTINUOUS
 62
     6
100
AcDbLine
 10
342.319412
 20
2007.569472
 30
0.0
 11
366.698172
 21
2031.948232
 31
0.0
  0
LINE
  5
1DB
100
AcDbEntity
  8
図面枠・表題欄
  6
CONTINUOUS
 62
     6
100
AcDbLine
 10
341.992107
 20
2006.535061
 30
0.0
 11
366.698172
 21
2031.241125
 31
0.0
  0
LINE
  5
1DC
100
AcDbEntity
  8
図面枠・表題欄
  6
CONTINUOUS
 62
     6
100
AcDbLine
 10
341.664803
 20
2005.50065
 30
0.0
 11
366.698172
 21
2030.534019
 31
0.0
  0
LINE
  5
1DD
100
AcDbEntity
  8
図面枠・表題欄
  6
CONTINUOUS
 62
     6
100
AcDbLine
 10
341.337499
 20
2004.466239
 30
0.0
 11
366.698172
 21
2029.826912
 31
0.0
  0
LINE
  5
1DE
100
AcDbEntity
  8
図面枠・表題欄
  6
CONTINUOUS
 62
     6
100
AcDbLine
 10
340.280758
 20
2002.702391
 30
0.0
 11
366.698172
 21
2029.119805
 31
0.0
  0
LINE
  5
1DF
100
AcDbEntity
  8
図面枠・表題欄
  6
CONTINUOUS
 62
     6
100
AcDbLine
 10
338.454625
 20
2000.169151
 30
0.0
 11
366.698172
 21
2028.412698
 31
0.0
  0
LINE
  5
1E0
100
AcDbEntity
  8
図面枠・表題欄
  6
CONTINUOUS
 62
     6
100
AcDbLine
 10
336.628491
 20
1997.635911
 30
0.0
 11
366.698172
 21
2027.705592
 31
0.0
  0
LINE
  5
1E1
100
AcDbEntity
  8
図面枠・表題欄
  6
CONTINUOUS
 62
     6
100
AcDbLine
 10
336.999687
 20
1997.3
 30
0.0
 11
361.962565
 21
2022.262878
 31
0.0
  0
LINE
  5
1E2
100
AcDbEntity
  8
図面枠・表題欄
  6
CONTINUOUS
 62
     6
100
AcDbLine
 10
337.706794
 20
1997.3
 30
0.0
 11
357.012818
 21
2016.606024
 31
0.0
  0
LINE
  5
1E3
100
AcDbEntity
  8
図面枠・表題欄
  6
CONTINUOUS
 62
     6
100
AcDbLine
 10
338.413901
 20
1997.3
 30
0.0
 11
352.06307
 21
2010.94917
 31
0.0
  0
LINE
  5
1E4
100
AcDbEntity
  8
図面枠・表題欄
  6
CONTINUOUS
 62
     6
100
AcDbLine
 10
339.121007
 20
1997.3
 30
0.0
 11
347.113323
 21
2005.292316
 31
0.0
  0
LINE
  5
1E5
100
AcDbEntity
  8
図面枠・表題欄
  6
CONTINUOUS
 62
     6
100
AcDbLine
 10
339.828114
 20
1997.3
 30
0.0
 11
345.903114
 21
2003.375
 31
0.0
  0
LINE
  5
1E6
100
AcDbEntity
  8
図面枠・表題欄
  6
CONTINUOUS
 62
     6
100
AcDbLine
 10
340.535221
 20
1997.3
 30
0.0
 11
346.610221
 21
2003.375
 31
0.0
  0
LINE
  5
1E7
100
AcDbEntity
  8
図面枠・表題欄
  6
CONTINUOUS
 62
     6
100
AcDbLine
 10
341.242328
 20
1997.3
 30
0.0
 11
347.317328
 21
2003.375
 31
0.0
  0
LINE
  5
1E8
100
AcDbEntity
  8
図面枠・表題欄
  6
CONTINUOUS
 62
     6
100
AcDbLine
 10
341.949434
 20
1997.3
 30
0.0
 11
348.024434
 21
2003.375
 31
0.0
  0
LINE
  5
1E9
100
AcDbEntity
  8
図面枠・表題欄
  6
CONTINUOUS
 62
     6
100
AcDbLine
 10
342.656541
 20
1997.3
 30
0.0
 11
348.731541
 21
2003.375
 31
0.0
  0
LINE
  5
1EA
100
AcDbEntity
  8
図面枠・表題欄
  6
CONTINUOUS
 62
     6
100
AcDbLine
 10
343.363648
 20
1997.3
 30
0.0
 11
349.438648
 21
2003.375
 31
0.0
  0
LINE
  5
1EB
100
AcDbEntity
  8
図面枠・表題欄
  6
CONTINUOUS
 62
     6
100
AcDbLine
 10
344.070755
 20
1997.3
 30
0.0
 11
350.145755
 21
2003.375
 31
0.0
  0
LINE
  5
1EC
100
AcDbEntity
  8
図面枠・表題欄
  6
CONTINUOUS
 62
     6
100
AcDbLine
 10
344.777862
 20
1997.3
 30
0.0
 11
350.852862
 21
2003.375
 31
0.0
  0
LINE
  5
1ED
100
AcDbEntity
  8
図面枠・表題欄
  6
CONTINUOUS
 62
     6
100
AcDbLine
 10
345.484968
 20
1997.3
 30
0.0
 11
351.559968
 21
2003.375
 31
0.0
  0
LINE
  5
1EE
100
AcDbEntity
  8
図面枠・表題欄
  6
CONTINUOUS
 62
     6
100
AcDbLine
 10
346.192075
 20
1997.3
 30
0.0
 11
352.267075
 21
2003.375
 31
0.0
  0
LINE
  5
1EF
100
AcDbEntity
  8
図面枠・表題欄
  6
CONTINUOUS
 62
     6
100
AcDbLine
 10
346.899182
 20
1997.3
 30
0.0
 11
352.974182
 21
2003.375
 31
0.0
  0
LINE
  5
1F0
100
AcDbEntity
  8
図面枠・表題欄
  6
CONTINUOUS
 62
     6
100
AcDbLine
 10
347.606289
 20
1997.3
 30
0.0
 11
353.681289
 21
2003.375
 31
0.0
  0
LINE
  5
1F1
100
AcDbEntity
  8
図面枠・表題欄
  6
CONTINUOUS
 62
     6
100
AcDbLine
 10
348.313395
 20
1997.3
 30
0.0
 11
354.388395
 21
2003.375
 31
0.0
  0
LINE
  5
1F2
100
AcDbEntity
  8
図面枠・表題欄
  6
CONTINUOUS
 62
     6
100
AcDbLine
 10
349.020502
 20
1997.3
 30
0.0
 11
355.095502
 21
2003.375
 31
0.0
  0
LINE
  5
1F3
100
AcDbEntity
  8
図面枠・表題欄
  6
CONTINUOUS
 62
     6
100
AcDbLine
 10
349.727609
 20
1997.3
 30
0.0
 11
355.802609
 21
2003.375
 31
0.0
  0
LINE
  5
1F4
100
AcDbEntity
  8
図面枠・表題欄
  6
CONTINUOUS
 62
     6
100
AcDbLine
 10
350.434716
 20
1997.3
 30
0.0
 11
356.509716
 21
2003.375
 31
0.0
  0
LINE
  5
1F5
100
AcDbEntity
  8
図面枠・表題欄
  6
CONTINUOUS
 62
     6
100
AcDbLine
 10
351.141823
 20
1997.3
 30
0.0
 11
357.216823
 21
2003.375
 31
0.0
  0
LINE
  5
1F6
100
AcDbEntity
  8
図面枠・表題欄
  6
CONTINUOUS
 62
     6
100
AcDbLine
 10
351.848929
 20
1997.3
 30
0.0
 11
357.923929
 21
2003.375
 31
0.0
  0
LINE
  5
1F7
100
AcDbEntity
  8
図面枠・表題欄
  6
CONTINUOUS
 62
     6
100
AcDbLine
 10
352.556036
 20
1997.3
 30
0.0
 11
358.631036
 21
2003.375
 31
0.0
  0
LINE
  5
1F8
100
AcDbEntity
  8
図面枠・表題欄
  6
CONTINUOUS
 62
     6
100
AcDbLine
 10
353.263143
 20
1997.3
 30
0.0
 11
359.338143
 21
2003.375
 31
0.0
  0
LINE
  5
1F9
100
AcDbEntity
  8
図面枠・表題欄
  6
CONTINUOUS
 62
     6
100
AcDbLine
 10
353.97025
 20
1997.3
 30
0.0
 11
360.04525
 21
2003.375
 31
0.0
  0
LINE
  5
1FA
100
AcDbEntity
  8
図面枠・表題欄
  6
CONTINUOUS
 62
     6
100
AcDbLine
 10
354.677356
 20
1997.3
 30
0.0
 11
360.752356
 21
2003.375
 31
0.0
  0
LINE
  5
1FB
100
AcDbEntity
  8
図面枠・表題欄
  6
CONTINUOUS
 62
     6
100
AcDbLine
 10
355.384463
 20
1997.3
 30
0.0
 11
361.459463
 21
2003.375
 31
0.0
  0
LINE
  5
1FC
100
AcDbEntity
  8
図面枠・表題欄
  6
CONTINUOUS
 62
     6
100
AcDbLine
 10
356.09157
 20
1997.3
 30
0.0
 11
362.16657
 21
2003.375
 31
0.0
  0
LINE
  5
1FD
100
AcDbEntity
  8
図面枠・表題欄
  6
CONTINUOUS
 62
     6
100
AcDbLine
 10
356.798677
 20
1997.3
 30
0.0
 11
362.873677
 21
2003.375
 31
0.0
  0
LINE
  5
1FE
100
AcDbEntity
  8
図面枠・表題欄
  6
CONTINUOUS
 62
     6
100
AcDbLine
 10
357.505784
 20
1997.3
 30
0.0
 11
363.580784
 21
2003.375
 31
0.0
  0
LINE
  5
1FF
100
AcDbEntity
  8
図面枠・表題欄
  6
CONTINUOUS
 62
     6
100
AcDbLine
 10
358.21289
 20
1997.3
 30
0.0
 11
364.28789
 21
2003.375
 31
0.0
  0
LINE
  5
200
100
AcDbEntity
  8
図面枠・表題欄
  6
CONTINUOUS
 62
     6
100
AcDbLine
 10
358.919997
 20
1997.3
 30
0.0
 11
364.994997
 21
2003.375
 31
0.0
  0
LINE
  5
201
100
AcDbEntity
  8
図面枠・表題欄
  6
CONTINUOUS
 62
     6
100
AcDbLine
 10
359.627104
 20
1997.3
 30
0.0
 11
365.702104
 21
2003.375
 31
0.0
  0
LINE
  5
202
100
AcDbEntity
  8
図面枠・表題欄
  6
CONTINUOUS
 62
     6
100
AcDbLine
 10
360.334211
 20
1997.3
 30
0.0
 11
366.409211
 21
2003.375
 31
0.0
  0
LINE
  5
203
100
AcDbEntity
  8
図面枠・表題欄
  6
CONTINUOUS
 62
     6
100
AcDbLine
 10
361.041318
 20
1997.3
 30
0.0
 11
366.698172
 21
2002.956854
 31
0.0
  0
LINE
  5
204
100
AcDbEntity
  8
図面枠・表題欄
  6
CONTINUOUS
 62
     6
100
AcDbLine
 10
361.748424
 20
1997.3
 30
0.0
 11
366.698172
 21
2002.249747
 31
0.0
  0
LINE
  5
205
100
AcDbEntity
  8
図面枠・表題欄
  6
CONTINUOUS
 62
     6
100
AcDbLine
 10
362.455531
 20
1997.3
 30
0.0
 11
366.698172
 21
2001.542641
 31
0.0
  0
LINE
  5
206
100
AcDbEntity
  8
図面枠・表題欄
  6
CONTINUOUS
 62
     6
100
AcDbLine
 10
363.162638
 20
1997.3
 30
0.0
 11
366.698172
 21
2000.835534
 31
0.0
  0
LINE
  5
207
100
AcDbEntity
  8
図面枠・表題欄
  6
CONTINUOUS
 62
     6
100
AcDbLine
 10
363.869745
 20
1997.3
 30
0.0
 11
366.698172
 21
2000.128427
 31
0.0
  0
LINE
  5
208
100
AcDbEntity
  8
図面枠・表題欄
  6
CONTINUOUS
 62
     6
100
AcDbLine
 10
364.576851
 20
1997.3
 30
0.0
 11
366.698172
 21
1999.42132
 31
0.0
  0
LINE
  5
209
100
AcDbEntity
  8
図面枠・表題欄
  6
CONTINUOUS
 62
     6
100
AcDbLine
 10
365.283958
 20
1997.3
 30
0.0
 11
366.698172
 21
1998.714214
 31
0.0
  0
LINE
  5
20A
100
AcDbEntity
  8
図面枠・表題欄
  6
CONTINUOUS
 62
     6
100
AcDbLine
 10
365.991065
 20
1997.3
 30
0.0
 11
366.698172
 21
1998.007107
 31
0.0
  0
LINE
  5
20B
100
AcDbEntity
  8
図面枠・表題欄
  6
CONTINUOUS
 62
     6
100
AcDbLine
 10
370.950672
 20
2033.19281
 30
0.0
 11
371.507862
 21
2033.75
 31
0.0
  0
LINE
  5
20C
100
AcDbEntity
  8
図面枠・表題欄
  6
CONTINUOUS
 62
     6
100
AcDbLine
 10
370.950672
 20
2032.485703
 30
0.0
 11
372.214968
 21
2033.75
 31
0.0
  0
LINE
  5
20D
100
AcDbEntity
  8
図面枠・表題欄
  6
CONTINUOUS
 62
     6
100
AcDbLine
 10
370.950672
 20
2031.778597
 30
0.0
 11
372.922075
 21
2033.75
 31
0.0
  0
LINE
  5
20E
100
AcDbEntity
  8
図面枠・表題欄
  6
CONTINUOUS
 62
     6
100
AcDbLine
 10
370.950672
 20
2031.07149
 30
0.0
 11
373.629182
 21
2033.75
 31
0.0
  0
LINE
  5
20F
100
AcDbEntity
  8
図面枠・表題欄
  6
CONTINUOUS
 62
     6
100
AcDbLine
 10
370.950672
 20
2030.364383
 30
0.0
 11
374.336289
 21
2033.75
 31
0.0
  0
LINE
  5
210
100
AcDbEntity
  8
図面枠・表題欄
  6
CONTINUOUS
 62
     6
100
AcDbLine
 10
370.950672
 20
2029.657276
 30
0.0
 11
375.043395
 21
2033.75
 31
0.0
  0
LINE
  5
211
100
AcDbEntity
  8
図面枠・表題欄
  6
CONTINUOUS
 62
     6
100
AcDbLine
 10
370.950672
 20
2028.95017
 30
0.0
 11
375.750502
 21
2033.75
 31
0.0
  0
LINE
  5
212
100
AcDbEntity
  8
図面枠・表題欄
  6
CONTINUOUS
 62
     6
100
AcDbLine
 10
370.950672
 20
2028.243063
 30
0.0
 11
376.457609
 21
2033.75
 31
0.0
  0
LINE
  5
213
100
AcDbEntity
  8
図面枠・表題欄
  6
CONTINUOUS
 62
     6
100
AcDbLine
 10
370.950672
 20
2027.535956
 30
0.0
 11
377.164716
 21
2033.75
 31
0.0
  0
LINE
  5
214
100
AcDbEntity
  8
図面枠・表題欄
  6
CONTINUOUS
 62
     6
100
AcDbLine
 10
370.950672
 20
2026.828849
 30
0.0
 11
377.871823
 21
2033.75
 31
0.0
  0
LINE
  5
215
100
AcDbEntity
  8
図面枠・表題欄
  6
CONTINUOUS
 62
     6
100
AcDbLine
 10
370.950672
 20
2026.121742
 30
0.0
 11
378.578929
 21
2033.75
 31
0.0
  0
LINE
  5
216
100
AcDbEntity
  8
図面枠・表題欄
  6
CONTINUOUS
 62
     6
100
AcDbLine
 10
370.950672
 20
2025.414636
 30
0.0
 11
379.286036
 21
2033.75
 31
0.0
  0
LINE
  5
217
100
AcDbEntity
  8
図面枠・表題欄
  6
CONTINUOUS
 62
     6
100
AcDbLine
 10
370.950672
 20
2024.707529
 30
0.0
 11
379.993143
 21
2033.75
 31
0.0
  0
LINE
  5
218
100
AcDbEntity
  8
図面枠・表題欄
  6
CONTINUOUS
 62
     6
100
AcDbLine
 10
370.950672
 20
2024.000422
 30
0.0
 11
380.70025
 21
2033.75
 31
0.0
  0
LINE
  5
219
100
AcDbEntity
  8
図面枠・表題欄
  6
CONTINUOUS
 62
     6
100
AcDbLine
 10
370.950672
 20
2023.293315
 30
0.0
 11
381.407356
 21
2033.75
 31
0.0
  0
LINE
  5
21A
100
AcDbEntity
  8
図面枠・表題欄
  6
CONTINUOUS
 62
     6
100
AcDbLine
 10
370.950672
 20
2022.586208
 30
0.0
 11
382.114463
 21
2033.75
 31
0.0
  0
LINE
  5
21B
100
AcDbEntity
  8
図面枠・表題欄
  6
CONTINUOUS
 62
     6
100
AcDbLine
 10
370.950672
 20
2021.879102
 30
0.0
 11
382.82157
 21
2033.75
 31
0.0
  0
LINE
  5
21C
100
AcDbEntity
  8
図面枠・表題欄
  6
CONTINUOUS
 62
     6
100
AcDbLine
 10
370.950672
 20
2021.171995
 30
0.0
 11
383.528677
 21
2033.75
 31
0.0
  0
LINE
  5
21D
100
AcDbEntity
  8
図面枠・表題欄
  6
CONTINUOUS
 62
     6
100
AcDbLine
 10
370.950672
 20
2020.464888
 30
0.0
 11
384.235784
 21
2033.75
 31
0.0
  0
LINE
  5
21E
100
AcDbEntity
  8
図面枠・表題欄
  6
CONTINUOUS
 62
     6
100
AcDbLine
 10
370.950672
 20
2019.757781
 30
0.0
 11
378.240672
 21
2027.047781
 31
0.0
  0
LINE
  5
21F
100
AcDbEntity
  8
図面枠・表題欄
  6
CONTINUOUS
 62
     6
100
AcDbLine
 10
378.86789
 20
2027.675
 30
0.0
 11
384.94289
 21
2033.75
 31
0.0
  0
LINE
  5
220
100
AcDbEntity
  8
図面枠・表題欄
  6
CONTINUOUS
 62
     6
100
AcDbLine
 10
370.950672
 20
2019.050675
 30
0.0
 11
378.240672
 21
2026.340675
 31
0.0
  0
LINE
  5
221
100
AcDbEntity
  8
図面枠・表題欄
  6
CONTINUOUS
 62
     6
100
AcDbLine
 10
379.574997
 20
2027.675
 30
0.0
 11
385.649997
 21
2033.75
 31
0.0
  0
LINE
  5
222
100
AcDbEntity
  8
図面枠・表題欄
  6
CONTINUOUS
 62
     6
100
AcDbLine
 10
370.950672
 20
2018.343568
 30
0.0
 11
378.240672
 21
2025.633568
 31
0.0
  0
LINE
  5
223
100
AcDbEntity
  8
図面枠・表題欄
  6
CONTINUOUS
 62
     6
100
AcDbLine
 10
380.282104
 20
2027.675
 30
0.0
 11
386.357104
 21
2033.75
 31
0.0
  0
LINE
  5
224
100
AcDbEntity
  8
図面枠・表題欄
  6
CONTINUOUS
 62
     6
100
AcDbLine
 10
370.950672
 20
2017.636461
 30
0.0
 11
378.240672
 21
2024.926461
 31
0.0
  0
LINE
  5
225
100
AcDbEntity
  8
図面枠・表題欄
  6
CONTINUOUS
 62
     6
100
AcDbLine
 10
380.989211
 20
2027.675
 30
0.0
 11
387.064211
 21
2033.75
 31
0.0
  0
LINE
  5
226
100
AcDbEntity
  8
図面枠・表題欄
  6
CONTINUOUS
 62
     6
100
AcDbLine
 10
370.950672
 20
2016.929354
 30
0.0
 11
378.240672
 21
2024.219354
 31
0.0
  0
LINE
  5
227
100
AcDbEntity
  8
図面枠・表題欄
  6
CONTINUOUS
 62
     6
100
AcDbLine
 10
381.696318
 20
2027.675
 30
0.0
 11
387.771318
 21
2033.75
 31
0.0
  0
LINE
  5
228
100
AcDbEntity
  8
図面枠・表題欄
  6
CONTINUOUS
 62
     6
100
AcDbLine
 10
370.950672
 20
2016.222247
 30
0.0
 11
378.240672
 21
2023.512247
 31
0.0
  0
LINE
  5
229
100
AcDbEntity
  8
図面枠・表題欄
  6
CONTINUOUS
 62
     6
100
AcDbLine
 10
382.403424
 20
2027.675
 30
0.0
 11
388.478424
 21
2033.75
 31
0.0
  0
LINE
  5
22A
100
AcDbEntity
  8
図面枠・表題欄
  6
CONTINUOUS
 62
     6
100
AcDbLine
 10
370.950672
 20
2015.515141
 30
0.0
 11
378.240672
 21
2022.805141
 31
0.0
  0
LINE
  5
22B
100
AcDbEntity
  8
図面枠・表題欄
  6
CONTINUOUS
 62
     6
100
AcDbLine
 10
383.110531
 20
2027.675
 30
0.0
 11
389.185531
 21
2033.75
 31
0.0
  0
LINE
  5
22C
100
AcDbEntity
  8
図面枠・表題欄
  6
CONTINUOUS
 62
     6
100
AcDbLine
 10
370.950672
 20
2014.808034
 30
0.0
 11
378.240672
 21
2022.098034
 31
0.0
  0
LINE
  5
22D
100
AcDbEntity
  8
図面枠・表題欄
  6
CONTINUOUS
 62
     6
100
AcDbLine
 10
383.817638
 20
2027.675
 30
0.0
 11
389.892638
 21
2033.75
 31
0.0
  0
LINE
  5
22E
100
AcDbEntity
  8
図面枠・表題欄
  6
CONTINUOUS
 62
     6
100
AcDbLine
 10
370.950672
 20
2014.100927
 30
0.0
 11
378.240672
 21
2021.390927
 31
0.0
  0
LINE
  5
22F
100
AcDbEntity
  8
図面枠・表題欄
  6
CONTINUOUS
 62
     6
100
AcDbLine
 10
384.524745
 20
2027.675
 30
0.0
 11
390.599745
 21
2033.75
 31
0.0
  0
LINE
  5
230
100
AcDbEntity
  8
図面枠・表題欄
  6
CONTINUOUS
 62
     6
100
AcDbLine
 10
370.950672
 20
2013.39382
 30
0.0
 11
378.240672
 21
2020.68382
 31
0.0
  0
LINE
  5
231
100
AcDbEntity
  8
図面枠・表題欄
  6
CONTINUOUS
 62
     6
100
AcDbLine
 10
385.231851
 20
2027.675
 30
0.0
 11
391.306851
 21
2033.75
 31
0.0
  0
LINE
  5
232
100
AcDbEntity
  8
図面枠・表題欄
  6
CONTINUOUS
 62
     6
100
AcDbLine
 10
370.950672
 20
2012.686714
 30
0.0
 11
378.240672
 21
2019.976714
 31
0.0
  0
LINE
  5
233
100
AcDbEntity
  8
図面枠・表題欄
  6
CONTINUOUS
 62
     6
100
AcDbLine
 10
385.938958
 20
2027.675
 30
0.0
 11
392.013958
 21
2033.75
 31
0.0
  0
LINE
  5
234
100
AcDbEntity
  8
図面枠・表題欄
  6
CONTINUOUS
 62
     6
100
AcDbLine
 10
370.950672
 20
2011.979607
 30
0.0
 11
378.240672
 21
2019.269607
 31
0.0
  0
LINE
  5
235
100
AcDbEntity
  8
図面枠・表題欄
  6
CONTINUOUS
 62
     6
100
AcDbLine
 10
386.646065
 20
2027.675
 30
0.0
 11
392.721065
 21
2033.75
 31
0.0
  0
LINE
  5
236
100
AcDbEntity
  8
図面枠・表題欄
  6
CONTINUOUS
 62
     6
100
AcDbLine
 10
370.950672
 20
2011.2725
 30
0.0
 11
378.240672
 21
2018.5625
 31
0.0
  0
LINE
  5
237
100
AcDbEntity
  8
図面枠・表題欄
  6
CONTINUOUS
 62
     6
100
AcDbLine
 10
387.353172
 20
2027.675
 30
0.0
 11
393.428172
 21
2033.75
 31
0.0
  0
LINE
  5
238
100
AcDbEntity
  8
図面枠・表題欄
  6
CONTINUOUS
 62
     6
100
AcDbLine
 10
370.950672
 20
2010.565393
 30
0.0
 11
378.947779
 21
2018.5625
 31
0.0
  0
LINE
  5
239
100
AcDbEntity
  8
図面枠・表題欄
  6
CONTINUOUS
 62
     6
100
AcDbLine
 10
388.060279
 20
2027.675
 30
0.0
 11
394.135279
 21
2033.75
 31
0.0
  0
LINE
  5
23A
100
AcDbEntity
  8
図面枠・表題欄
  6
CONTINUOUS
 62
     6
100
AcDbLine
 10
370.950672
 20
2009.858286
 30
0.0
 11
379.654885
 21
2018.5625
 31
0.0
  0
LINE
  5
23B
100
AcDbEntity
  8
図面枠・表題欄
  6
CONTINUOUS
 62
     6
100
AcDbLine
 10
388.767385
 20
2027.675
 30
0.0
 11
394.842385
 21
2033.75
 31
0.0
  0
LINE
  5
23C
100
AcDbEntity
  8
図面枠・表題欄
  6
CONTINUOUS
 62
     6
100
AcDbLine
 10
370.950672
 20
2009.15118
 30
0.0
 11
380.361992
 21
2018.5625
 31
0.0
  0
LINE
  5
23D
100
AcDbEntity
  8
図面枠・表題欄
  6
CONTINUOUS
 62
     6
100
AcDbLine
 10
389.474492
 20
2027.675
 30
0.0
 11
395.549492
 21
2033.75
 31
0.0
  0
LINE
  5
23E
100
AcDbEntity
  8
図面枠・表題欄
  6
CONTINUOUS
 62
     6
100
AcDbLine
 10
370.950672
 20
2008.444073
 30
0.0
 11
381.069099
 21
2018.5625
 31
0.0
  0
LINE
  5
23F
100
AcDbEntity
  8
図面枠・表題欄
  6
CONTINUOUS
 62
     6
100
AcDbLine
 10
390.181599
 20
2027.675
 30
0.0
 11
396.256599
 21
2033.75
 31
0.0
  0
LINE
  5
240
100
AcDbEntity
  8
図面枠・表題欄
  6
CONTINUOUS
 62
     6
100
AcDbLine
 10
370.950672
 20
2007.736966
 30
0.0
 11
381.776206
 21
2018.5625
 31
0.0
  0
LINE
  5
241
100
AcDbEntity
  8
図面枠・表題欄
  6
CONTINUOUS
 62
     6
100
AcDbLine
 10
390.888706
 20
2027.675
 30
0.0
 11
396.963706
 21
2033.75
 31
0.0
  0
LINE
  5
242
100
AcDbEntity
  8
図面枠・表題欄
  6
CONTINUOUS
 62
     6
100
AcDbLine
 10
370.950672
 20
2007.029859
 30
0.0
 11
382.483312
 21
2018.5625
 31
0.0
  0
LINE
  5
243
100
AcDbEntity
  8
図面枠・表題欄
  6
CONTINUOUS
 62
     6
100
AcDbLine
 10
391.595812
 20
2027.675
 30
0.0
 11
397.670812
 21
2033.75
 31
0.0
  0
LINE
  5
244
100
AcDbEntity
  8
図面枠・表題欄
  6
CONTINUOUS
 62
     6
100
AcDbLine
 10
370.950672
 20
2006.322753
 30
0.0
 11
383.190419
 21
2018.5625
 31
0.0
  0
LINE
  5
245
100
AcDbEntity
  8
図面枠・表題欄
  6
CONTINUOUS
 62
     6
100
AcDbLine
 10
392.302919
 20
2027.675
 30
0.0
 11
398.377919
 21
2033.75
 31
0.0
  0
LINE
  5
246
100
AcDbEntity
  8
図面枠・表題欄
  6
CONTINUOUS
 62
     6
100
AcDbLine
 10
370.950672
 20
2005.615646
 30
0.0
 11
383.897526
 21
2018.5625
 31
0.0
  0
LINE
  5
247
100
AcDbEntity
  8
図面枠・表題欄
  6
CONTINUOUS
 62
     6
100
AcDbLine
 10
393.010026
 20
2027.675
 30
0.0
 11
399.085026
 21
2033.75
 31
0.0
  0
LINE
  5
248
100
AcDbEntity
  8
図面枠・表題欄
  6
CONTINUOUS
 62
     6
100
AcDbLine
 10
370.950672
 20
2004.908539
 30
0.0
 11
378.240672
 21
2012.198539
 31
0.0
  0
LINE
  5
249
100
AcDbEntity
  8
図面枠・表題欄
  6
CONTINUOUS
 62
     6
100
AcDbLine
 10
378.529633
 20
2012.4875
 30
0.0
 11
384.604633
 21
2018.5625
 31
0.0
  0
LINE
  5
24A
100
AcDbEntity
  8
図面枠・表題欄
  6
CONTINUOUS
 62
     6
100
AcDbLine
 10
393.717133
 20
2027.675
 30
0.0
 11
399.792133
 21
2033.75
 31
0.0
  0
LINE
  5
24B
100
AcDbEntity
  8
図面枠・表題欄
  6
CONTINUOUS
 62
     6
100
AcDbLine
 10
370.950672
 20
2004.201432
 30
0.0
 11
378.240672
 21
2011.491432
 31
0.0
  0
LINE
  5
24C
100
AcDbEntity
  8
図面枠・表題欄
  6
CONTINUOUS
 62
     6
100
AcDbLine
 10
379.23674
 20
2012.4875
 30
0.0
 11
385.31174
 21
2018.5625
 31
0.0
  0
LINE
  5
24D
100
AcDbEntity
  8
図面枠・表題欄
  6
CONTINUOUS
 62
     6
100
AcDbLine
 10
394.42424
 20
2027.675
 30
0.0
 11
400.49924
 21
2033.75
 31
0.0
  0
LINE
  5
24E
100
AcDbEntity
  8
図面枠・表題欄
  6
CONTINUOUS
 62
     6
100
AcDbLine
 10
370.950672
 20
2003.494325
 30
0.0
 11
378.240672
 21
2010.784325
 31
0.0
  0
LINE
  5
24F
100
AcDbEntity
  8
図面枠・表題欄
  6
CONTINUOUS
 62
     6
100
AcDbLine
 10
379.943846
 20
2012.4875
 30
0.0
 11
386.018846
 21
2018.5625
 31
0.0
  0
LINE
  5
250
100
AcDbEntity
  8
図面枠・表題欄
  6
CONTINUOUS
 62
     6
100
AcDbLine
 10
395.131346
 20
2027.675
 30
0.0
 11
401.206346
 21
2033.75
 31
0.0
  0
LINE
  5
251
100
AcDbEntity
  8
図面枠・表題欄
  6
CONTINUOUS
 62
     6
100
AcDbLine
 10
370.950672
 20
2002.787219
 30
0.0
 11
378.240672
 21
2010.077219
 31
0.0
  0
LINE
  5
252
100
AcDbEntity
  8
図面枠・表題欄
  6
CONTINUOUS
 62
     6
100
AcDbLine
 10
380.650953
 20
2012.4875
 30
0.0
 11
386.725953
 21
2018.5625
 31
0.0
  0
LINE
  5
253
100
AcDbEntity
  8
図面枠・表題欄
  6
CONTINUOUS
 62
     6
100
AcDbLine
 10
395.838453
 20
2027.675
 30
0.0
 11
401.913453
 21
2033.75
 31
0.0
  0
LINE
  5
254
100
AcDbEntity
  8
図面枠・表題欄
  6
CONTINUOUS
 62
     6
100
AcDbLine
 10
370.950672
 20
2002.080112
 30
0.0
 11
378.240672
 21
2009.370112
 31
0.0
  0
LINE
  5
255
100
AcDbEntity
  8
図面枠・表題欄
  6
CONTINUOUS
 62
     6
100
AcDbLine
 10
381.35806
 20
2012.4875
 30
0.0
 11
387.43306
 21
2018.5625
 31
0.0
  0
LINE
  5
256
100
AcDbEntity
  8
図面枠・表題欄
  6
CONTINUOUS
 62
     6
100
AcDbLine
 10
396.54556
 20
2027.675
 30
0.0
 11
402.540672
 21
2033.670112
 31
0.0
  0
LINE
  5
257
100
AcDbEntity
  8
図面枠・表題欄
  6
CONTINUOUS
 62
     6
100
AcDbLine
 10
370.950672
 20
2001.373005
 30
0.0
 11
378.240672
 21
2008.663005
 31
0.0
  0
LINE
  5
258
100
AcDbEntity
  8
図面枠・表題欄
  6
CONTINUOUS
 62
     6
100
AcDbLine
 10
382.065167
 20
2012.4875
 30
0.0
 11
388.140167
 21
2018.5625
 31
0.0
  0
LINE
  5
259
100
AcDbEntity
  8
図面枠・表題欄
  6
CONTINUOUS
 62
     6
100
AcDbLine
 10
397.252667
 20
2027.675
 30
0.0
 11
402.540672
 21
2032.963005
 31
0.0
  0
LINE
  5
25A
100
AcDbEntity
  8
図面枠・表題欄
  6
CONTINUOUS
 62
     6
100
AcDbLine
 10
370.950672
 20
2000.665898
 30
0.0
 11
378.240672
 21
2007.955898
 31
0.0
  0
LINE
  5
25B
100
AcDbEntity
  8
図面枠・表題欄
  6
CONTINUOUS
 62
     6
100
AcDbLine
 10
382.772273
 20
2012.4875
 30
0.0
 11
388.847273
 21
2018.5625
 31
0.0
  0
LINE
  5
25C
100
AcDbEntity
  8
図面枠・表題欄
  6
CONTINUOUS
 62
     6
100
AcDbLine
 10
397.959773
 20
2027.675
 30
0.0
 11
402.540672
 21
2032.255898
 31
0.0
  0
LINE
  5
25D
100
AcDbEntity
  8
図面枠・表題欄
  6
CONTINUOUS
 62
     6
100
AcDbLine
 10
370.950672
 20
1999.958792
 30
0.0
 11
378.240672
 21
2007.248792
 31
0.0
  0
LINE
  5
25E
100
AcDbEntity
  8
図面枠・表題欄
  6
CONTINUOUS
 62
     6
100
AcDbLine
 10
383.47938
 20
2012.4875
 30
0.0
 11
389.55438
 21
2018.5625
 31
0.0
  0
LINE
  5
25F
100
AcDbEntity
  8
図面枠・表題欄
  6
CONTINUOUS
 62
     6
100
AcDbLine
 10
398.66688
 20
2027.675
 30
0.0
 11
402.540672
 21
2031.548792
 31
0.0
  0
LINE
  5
260
100
AcDbEntity
  8
図面枠・表題欄
  6
CONTINUOUS
 62
     6
100
AcDbLine
 10
370.950672
 20
1999.251685
 30
0.0
 11
378.240672
 21
2006.541685
 31
0.0
  0
LINE
  5
261
100
AcDbEntity
  8
図面枠・表題欄
  6
CONTINUOUS
 62
     6
100
AcDbLine
 10
384.186487
 20
2012.4875
 30
0.0
 11
390.261487
 21
2018.5625
 31
0.0
  0
LINE
  5
262
100
AcDbEntity
  8
図面枠・表題欄
  6
CONTINUOUS
 62
     6
100
AcDbLine
 10
399.373987
 20
2027.675
 30
0.0
 11
402.540672
 21
2030.841685
 31
0.0
  0
LINE
  5
263
100
AcDbEntity
  8
図面枠・表題欄
  6
CONTINUOUS
 62
     6
100
AcDbLine
 10
370.950672
 20
1998.544578
 30
0.0
 11
378.240672
 21
2005.834578
 31
0.0
  0
LINE
  5
264
100
AcDbEntity
  8
図面枠・表題欄
  6
CONTINUOUS
 62
     6
100
AcDbLine
 10
384.893594
 20
2012.4875
 30
0.0
 11
390.968594
 21
2018.5625
 31
0.0
  0
LINE
  5
265
100
AcDbEntity
  8
図面枠・表題欄
  6
CONTINUOUS
 62
     6
100
AcDbLine
 10
400.081094
 20
2027.675
 30
0.0
 11
402.540672
 21
2030.134578
 31
0.0
  0
LINE
  5
266
100
AcDbEntity
  8
図面枠・表題欄
  6
CONTINUOUS
 62
     6
100
AcDbLine
 10
370.950672
 20
1997.837471
 30
0.0
 11
378.240672
 21
2005.127471
 31
0.0
  0
LINE
  5
267
100
AcDbEntity
  8
図面枠・表題欄
  6
CONTINUOUS
 62
     6
100
AcDbLine
 10
385.600701
 20
2012.4875
 30
0.0
 11
391.675701
 21
2018.5625
 31
0.0
  0
LINE
  5
268
100
AcDbEntity
  8
図面枠・表題欄
  6
CONTINUOUS
 62
     6
100
AcDbLine
 10
400.788201
 20
2027.675
 30
0.0
 11
402.540672
 21
2029.427471
 31
0.0
  0
LINE
  5
269
100
AcDbEntity
  8
図面枠・表題欄
  6
CONTINUOUS
 62
     6
100
AcDbLine
 10
371.120307
 20
1997.3
 30
0.0
 11
378.240672
 21
2004.420364
 31
0.0
  0
LINE
  5
26A
100
AcDbEntity
  8
図面枠・表題欄
  6
CONTINUOUS
 62
     6
100
AcDbLine
 10
386.307807
 20
2012.4875
 30
0.0
 11
392.382807
 21
2018.5625
 31
0.0
  0
LINE
  5
26B
100
AcDbEntity
  8
図面枠・表題欄
  6
CONTINUOUS
 62
     6
100
AcDbLine
 10
401.495307
 20
2027.675
 30
0.0
 11
402.540672
 21
2028.720364
 31
0.0
  0
LINE
  5
26C
100
AcDbEntity
  8
図面枠・表題欄
  6
CONTINUOUS
 62
     6
100
AcDbLine
 10
371.827414
 20
1997.3
 30
0.0
 11
378.240672
 21
2003.713258
 31
0.0
  0
LINE
  5
26D
100
AcDbEntity
  8
図面枠・表題欄
  6
CONTINUOUS
 62
     6
100
AcDbLine
 10
387.014914
 20
2012.4875
 30
0.0
 11
393.089914
 21
2018.5625
 31
0.0
  0
LINE
  5
26E
100
AcDbEntity
  8
図面枠・表題欄
  6
CONTINUOUS
 62
     6
100
AcDbLine
 10
402.202414
 20
2027.675
 30
0.0
 11
402.540672
 21
2028.013258
 31
0.0
  0
LINE
  5
26F
100
AcDbEntity
  8
図面枠・表題欄
  6
CONTINUOUS
 62
     6
100
AcDbLine
 10
372.534521
 20
1997.3
 30
0.0
 11
378.609521
 21
2003.375
 31
0.0
  0
LINE
  5
270
100
AcDbEntity
  8
図面枠・表題欄
  6
CONTINUOUS
 62
     6
100
AcDbLine
 10
387.722021
 20
2012.4875
 30
0.0
 11
393.797021
 21
2018.5625
 31
0.0
  0
LINE
  5
271
100
AcDbEntity
  8
図面枠・表題欄
  6
CONTINUOUS
 62
     6
100
AcDbLine
 10
373.241628
 20
1997.3
 30
0.0
 11
379.316628
 21
2003.375
 31
0.0
  0
LINE
  5
272
100
AcDbEntity
  8
図面枠・表題欄
  6
CONTINUOUS
 62
     6
100
AcDbLine
 10
388.429128
 20
2012.4875
 30
0.0
 11
394.504128
 21
2018.5625
 31
0.0
  0
LINE
  5
273
100
AcDbEntity
  8
図面枠・表題欄
  6
CONTINUOUS
 62
     6
100
AcDbLine
 10
373.948735
 20
1997.3
 30
0.0
 11
380.023735
 21
2003.375
 31
0.0
  0
LINE
  5
274
100
AcDbEntity
  8
図面枠・表題欄
  6
CONTINUOUS
 62
     6
100
AcDbLine
 10
389.136235
 20
2012.4875
 30
0.0
 11
395.211235
 21
2018.5625
 31
0.0
  0
LINE
  5
275
100
AcDbEntity
  8
図面枠・表題欄
  6
CONTINUOUS
 62
     6
100
AcDbLine
 10
374.655841
 20
1997.3
 30
0.0
 11
380.730841
 21
2003.375
 31
0.0
  0
LINE
  5
276
100
AcDbEntity
  8
図面枠・表題欄
  6
CONTINUOUS
 62
     6
100
AcDbLine
 10
389.843341
 20
2012.4875
 30
0.0
 11
395.918341
 21
2018.5625
 31
0.0
  0
LINE
  5
277
100
AcDbEntity
  8
図面枠・表題欄
  6
CONTINUOUS
 62
     6
100
AcDbLine
 10
375.362948
 20
1997.3
 30
0.0
 11
381.437948
 21
2003.375
 31
0.0
  0
LINE
  5
278
100
AcDbEntity
  8
図面枠・表題欄
  6
CONTINUOUS
 62
     6
100
AcDbLine
 10
390.550448
 20
2012.4875
 30
0.0
 11
396.625448
 21
2018.5625
 31
0.0
  0
LINE
  5
279
100
AcDbEntity
  8
図面枠・表題欄
  6
CONTINUOUS
 62
     6
100
AcDbLine
 10
376.070055
 20
1997.3
 30
0.0
 11
382.145055
 21
2003.375
 31
0.0
  0
LINE
  5
27A
100
AcDbEntity
  8
図面枠・表題欄
  6
CONTINUOUS
 62
     6
100
AcDbLine
 10
391.257555
 20
2012.4875
 30
0.0
 11
397.332555
 21
2018.5625
 31
0.0
  0
LINE
  5
27B
100
AcDbEntity
  8
図面枠・表題欄
  6
CONTINUOUS
 62
     6
100
AcDbLine
 10
376.777162
 20
1997.3
 30
0.0
 11
382.852162
 21
2003.375
 31
0.0
  0
LINE
  5
27C
100
AcDbEntity
  8
図面枠・表題欄
  6
CONTINUOUS
 62
     6
100
AcDbLine
 10
391.964662
 20
2012.4875
 30
0.0
 11
398.039662
 21
2018.5625
 31
0.0
  0
LINE
  5
27D
100
AcDbEntity
  8
図面枠・表題欄
  6
CONTINUOUS
 62
     6
100
AcDbLine
 10
377.484268
 20
1997.3
 30
0.0
 11
383.559268
 21
2003.375
 31
0.0
  0
LINE
  5
27E
100
AcDbEntity
  8
図面枠・表題欄
  6
CONTINUOUS
 62
     6
100
AcDbLine
 10
392.671768
 20
2012.4875
 30
0.0
 11
398.746768
 21
2018.5625
 31
0.0
  0
LINE
  5
27F
100
AcDbEntity
  8
図面枠・表題欄
  6
CONTINUOUS
 62
     6
100
AcDbLine
 10
378.191375
 20
1997.3
 30
0.0
 11
384.266375
 21
2003.375
 31
0.0
  0
LINE
  5
280
100
AcDbEntity
  8
図面枠・表題欄
  6
CONTINUOUS
 62
     6
100
AcDbLine
 10
393.378875
 20
2012.4875
 30
0.0
 11
399.453875
 21
2018.5625
 31
0.0
  0
LINE
  5
281
100
AcDbEntity
  8
図面枠・表題欄
  6
CONTINUOUS
 62
     6
100
AcDbLine
 10
378.898482
 20
1997.3
 30
0.0
 11
384.973482
 21
2003.375
 31
0.0
  0
LINE
  5
282
100
AcDbEntity
  8
図面枠・表題欄
  6
CONTINUOUS
 62
     6
100
AcDbLine
 10
394.085982
 20
2012.4875
 30
0.0
 11
400.160982
 21
2018.5625
 31
0.0
  0
LINE
  5
283
100
AcDbEntity
  8
図面枠・表題欄
  6
CONTINUOUS
 62
     6
100
AcDbLine
 10
379.605589
 20
1997.3
 30
0.0
 11
385.680589
 21
2003.375
 31
0.0
  0
LINE
  5
284
100
AcDbEntity
  8
図面枠・表題欄
  6
CONTINUOUS
 62
     6
100
AcDbLine
 10
394.793089
 20
2012.4875
 30
0.0
 11
400.868089
 21
2018.5625
 31
0.0
  0
LINE
  5
285
100
AcDbEntity
  8
図面枠・表題欄
  6
CONTINUOUS
 62
     6
100
AcDbLine
 10
380.312696
 20
1997.3
 30
0.0
 11
386.387696
 21
2003.375
 31
0.0
  0
LINE
  5
286
100
AcDbEntity
  8
図面枠・表題欄
  6
CONTINUOUS
 62
     6
100
AcDbLine
 10
395.500196
 20
2012.4875
 30
0.0
 11
401.325672
 21
2018.312976
 31
0.0
  0
LINE
  5
287
100
AcDbEntity
  8
図面枠・表題欄
  6
CONTINUOUS
 62
     6
100
AcDbLine
 10
381.019802
 20
1997.3
 30
0.0
 11
387.094802
 21
2003.375
 31
0.0
  0
LINE
  5
288
100
AcDbEntity
  8
図面枠・表題欄
  6
CONTINUOUS
 62
     6
100
AcDbLine
 10
396.207302
 20
2012.4875
 30
0.0
 11
401.325672
 21
2017.605869
 31
0.0
  0
LINE
  5
289
100
AcDbEntity
  8
図面枠・表題欄
  6
CONTINUOUS
 62
     6
100
AcDbLine
 10
381.726909
 20
1997.3
 30
0.0
 11
387.801909
 21
2003.375
 31
0.0
  0
LINE
  5
28A
100
AcDbEntity
  8
図面枠・表題欄
  6
CONTINUOUS
 62
     6
100
AcDbLine
 10
396.914409
 20
2012.4875
 30
0.0
 11
401.325672
 21
2016.898763
 31
0.0
  0
LINE
  5
28B
100
AcDbEntity
  8
図面枠・表題欄
  6
CONTINUOUS
 62
     6
100
AcDbLine
 10
382.434016
 20
1997.3
 30
0.0
 11
388.509016
 21
2003.375
 31
0.0
  0
LINE
  5
28C
100
AcDbEntity
  8
図面枠・表題欄
  6
CONTINUOUS
 62
     6
100
AcDbLine
 10
397.621516
 20
2012.4875
 30
0.0
 11
401.325672
 21
2016.191656
 31
0.0
  0
LINE
  5
28D
100
AcDbEntity
  8
図面枠・表題欄
  6
CONTINUOUS
 62
     6
100
AcDbLine
 10
383.141123
 20
1997.3
 30
0.0
 11
389.216123
 21
2003.375
 31
0.0
  0
LINE
  5
28E
100
AcDbEntity
  8
図面枠・表題欄
  6
CONTINUOUS
 62
     6
100
AcDbLine
 10
398.328623
 20
2012.4875
 30
0.0
 11
401.325672
 21
2015.484549
 31
0.0
  0
LINE
  5
28F
100
AcDbEntity
  8
図面枠・表題欄
  6
CONTINUOUS
 62
     6
100
AcDbLine
 10
383.848229
 20
1997.3
 30
0.0
 11
389.923229
 21
2003.375
 31
0.0
  0
LINE
  5
290
100
AcDbEntity
  8
図面枠・表題欄
  6
CONTINUOUS
 62
     6
100
AcDbLine
 10
399.035729
 20
2012.4875
 30
0.0
 11
401.325672
 21
2014.777442
 31
0.0
  0
LINE
  5
291
100
AcDbEntity
  8
図面枠・表題欄
  6
CONTINUOUS
 62
     6
100
AcDbLine
 10
384.555336
 20
1997.3
 30
0.0
 11
390.630336
 21
2003.375
 31
0.0
  0
LINE
  5
292
100
AcDbEntity
  8
図面枠・表題欄
  6
CONTINUOUS
 62
     6
100
AcDbLine
 10
399.742836
 20
2012.4875
 30
0.0
 11
401.325672
 21
2014.070336
 31
0.0
  0
LINE
  5
293
100
AcDbEntity
  8
図面枠・表題欄
  6
CONTINUOUS
 62
     6
100
AcDbLine
 10
385.262443
 20
1997.3
 30
0.0
 11
391.337443
 21
2003.375
 31
0.0
  0
LINE
  5
294
100
AcDbEntity
  8
図面枠・表題欄
  6
CONTINUOUS
 62
     6
100
AcDbLine
 10
400.449943
 20
2012.4875
 30
0.0
 11
401.325672
 21
2013.363229
 31
0.0
  0
LINE
  5
295
100
AcDbEntity
  8
図面枠・表題欄
  6
CONTINUOUS
 62
     6
100
AcDbLine
 10
385.96955
 20
1997.3
 30
0.0
 11
392.04455
 21
2003.375
 31
0.0
  0
LINE
  5
296
100
AcDbEntity
  8
図面枠・表題欄
  6
CONTINUOUS
 62
     6
100
AcDbLine
 10
401.15705
 20
2012.4875
 30
0.0
 11
401.325672
 21
2012.656122
 31
0.0
  0
LINE
  5
297
100
AcDbEntity
  8
図面枠・表題欄
  6
CONTINUOUS
 62
     6
100
AcDbLine
 10
386.676657
 20
1997.3
 30
0.0
 11
392.751657
 21
2003.375
 31
0.0
  0
LINE
  5
298
100
AcDbEntity
  8
図面枠・表題欄
  6
CONTINUOUS
 62
     6
100
AcDbLine
 10
387.383763
 20
1997.3
 30
0.0
 11
393.458763
 21
2003.375
 31
0.0
  0
LINE
  5
299
100
AcDbEntity
  8
図面枠・表題欄
  6
CONTINUOUS
 62
     6
100
AcDbLine
 10
388.09087
 20
1997.3
 30
0.0
 11
394.16587
 21
2003.375
 31
0.0
  0
LINE
  5
29A
100
AcDbEntity
  8
図面枠・表題欄
  6
CONTINUOUS
 62
     6
100
AcDbLine
 10
388.797977
 20
1997.3
 30
0.0
 11
394.872977
 21
2003.375
 31
0.0
  0
LINE
  5
29B
100
AcDbEntity
  8
図面枠・表題欄
  6
CONTINUOUS
 62
     6
100
AcDbLine
 10
389.505084
 20
1997.3
 30
0.0
 11
395.580084
 21
2003.375
 31
0.0
  0
LINE
  5
29C
100
AcDbEntity
  8
図面枠・表題欄
  6
CONTINUOUS
 62
     6
100
AcDbLine
 10
390.21219
 20
1997.3
 30
0.0
 11
396.28719
 21
2003.375
 31
0.0
  0
LINE
  5
29D
100
AcDbEntity
  8
図面枠・表題欄
  6
CONTINUOUS
 62
     6
100
AcDbLine
 10
390.919297
 20
1997.3
 30
0.0
 11
396.994297
 21
2003.375
 31
0.0
  0
LINE
  5
29E
100
AcDbEntity
  8
図面枠・表題欄
  6
CONTINUOUS
 62
     6
100
AcDbLine
 10
391.626404
 20
1997.3
 30
0.0
 11
397.701404
 21
2003.375
 31
0.0
  0
LINE
  5
29F
100
AcDbEntity
  8
図面枠・表題欄
  6
CONTINUOUS
 62
     6
100
AcDbLine
 10
392.333511
 20
1997.3
 30
0.0
 11
398.408511
 21
2003.375
 31
0.0
  0
LINE
  5
2A0
100
AcDbEntity
  8
図面枠・表題欄
  6
CONTINUOUS
 62
     6
100
AcDbLine
 10
393.040618
 20
1997.3
 30
0.0
 11
399.115618
 21
2003.375
 31
0.0
  0
LINE
  5
2A1
100
AcDbEntity
  8
図面枠・表題欄
  6
CONTINUOUS
 62
     6
100
AcDbLine
 10
393.747724
 20
1997.3
 30
0.0
 11
399.822724
 21
2003.375
 31
0.0
  0
LINE
  5
2A2
100
AcDbEntity
  8
図面枠・表題欄
  6
CONTINUOUS
 62
     6
100
AcDbLine
 10
394.454831
 20
1997.3
 30
0.0
 11
400.529831
 21
2003.375
 31
0.0
  0
LINE
  5
2A3
100
AcDbEntity
  8
図面枠・表題欄
  6
CONTINUOUS
 62
     6
100
AcDbLine
 10
395.161938
 20
1997.3
 30
0.0
 11
401.236938
 21
2003.375
 31
0.0
  0
LINE
  5
2A4
100
AcDbEntity
  8
図面枠・表題欄
  6
CONTINUOUS
 62
     6
100
AcDbLine
 10
395.869045
 20
1997.3
 30
0.0
 11
401.944045
 21
2003.375
 31
0.0
  0
LINE
  5
2A5
100
AcDbEntity
  8
図面枠・表題欄
  6
CONTINUOUS
 62
     6
100
AcDbLine
 10
396.576152
 20
1997.3
 30
0.0
 11
402.540672
 21
2003.26452
 31
0.0
  0
LINE
  5
2A6
100
AcDbEntity
  8
図面枠・表題欄
  6
CONTINUOUS
 62
     6
100
AcDbLine
 10
397.283258
 20
1997.3
 30
0.0
 11
402.540672
 21
2002.557413
 31
0.0
  0
LINE
  5
2A7
100
AcDbEntity
  8
図面枠・表題欄
  6
CONTINUOUS
 62
     6
100
AcDbLine
 10
397.990365
 20
1997.3
 30
0.0
 11
402.540672
 21
2001.850307
 31
0.0
  0
LINE
  5
2A8
100
AcDbEntity
  8
図面枠・表題欄
  6
CONTINUOUS
 62
     6
100
AcDbLine
 10
398.697472
 20
1997.3
 30
0.0
 11
402.540672
 21
2001.1432
 31
0.0
  0
LINE
  5
2A9
100
AcDbEntity
  8
図面枠・表題欄
  6
CONTINUOUS
 62
     6
100
AcDbLine
 10
399.404579
 20
1997.3
 30
0.0
 11
402.540672
 21
2000.436093
 31
0.0
  0
LINE
  5
2AA
100
AcDbEntity
  8
図面枠・表題欄
  6
CONTINUOUS
 62
     6
100
AcDbLine
 10
400.111685
 20
1997.3
 30
0.0
 11
402.540672
 21
1999.728986
 31
0.0
  0
LINE
  5
2AB
100
AcDbEntity
  8
図面枠・表題欄
  6
CONTINUOUS
 62
     6
100
AcDbLine
 10
400.818792
 20
1997.3
 30
0.0
 11
402.540672
 21
1999.02188
 31
0.0
  0
LINE
  5
2AC
100
AcDbEntity
  8
図面枠・表題欄
  6
CONTINUOUS
 62
     6
100
AcDbLine
 10
401.525899
 20
1997.3
 30
0.0
 11
402.540672
 21
1998.314773
 31
0.0
  0
LINE
  5
2AD
100
AcDbEntity
  8
図面枠・表題欄
  6
CONTINUOUS
 62
     6
100
AcDbLine
 10
402.233006
 20
1997.3
 30
0.0
 11
402.540672
 21
1997.607666
 31
0.0
  0
LINE
  5
2AE
100
AcDbEntity
  8
図面枠・表題欄
  6
CONTINUOUS
 62
     6
100
AcDbLine
 10
406.793172
 20
2033.073485
 30
0.0
 11
407.469687
 21
2033.75
 31
0.0
  0
LINE
  5
2AF
100
AcDbEntity
  8
図面枠・表題欄
  6
CONTINUOUS
 62
     6
100
AcDbLine
 10
406.793172
 20
2032.366378
 30
0.0
 11
408.176794
 21
2033.75
 31
0.0
  0
LINE
  5
2B0
100
AcDbEntity
  8
図面枠・表題欄
  6
CONTINUOUS
 62
     6
100
AcDbLine
 10
406.793172
 20
2031.659271
 30
0.0
 11
408.883901
 21
2033.75
 31
0.0
  0
LINE
  5
2B1
100
AcDbEntity
  8
図面枠・表題欄
  6
CONTINUOUS
 62
     6
100
AcDbLine
 10
406.793172
 20
2030.952164
 30
0.0
 11
409.591007
 21
2033.75
 31
0.0
  0
LINE
  5
2B2
100
AcDbEntity
  8
図面枠・表題欄
  6
CONTINUOUS
 62
     6
100
AcDbLine
 10
406.793172
 20
2030.245058
 30
0.0
 11
410.298114
 21
2033.75
 31
0.0
  0
LINE
  5
2B3
100
AcDbEntity
  8
図面枠・表題欄
  6
CONTINUOUS
 62
     6
100
AcDbLine
 10
406.793172
 20
2029.537951
 30
0.0
 11
411.005221
 21
2033.75
 31
0.0
  0
LINE
  5
2B4
100
AcDbEntity
  8
図面枠・表題欄
  6
CONTINUOUS
 62
     6
100
AcDbLine
 10
406.793172
 20
2028.830844
 30
0.0
 11
411.712328
 21
2033.75
 31
0.0
  0
LINE
  5
2B5
100
AcDbEntity
  8
図面枠・表題欄
  6
CONTINUOUS
 62
     6
100
AcDbLine
 10
406.793172
 20
2028.123737
 30
0.0
 11
412.419434
 21
2033.75
 31
0.0
  0
LINE
  5
2B6
100
AcDbEntity
  8
図面枠・表題欄
  6
CONTINUOUS
 62
     6
100
AcDbLine
 10
406.793172
 20
2027.416631
 30
0.0
 11
412.978902
 21
2033.60236
 31
0.0
  0
LINE
  5
2B7
100
AcDbEntity
  8
図面枠・表題欄
  6
CONTINUOUS
 62
     6
100
AcDbLine
 10
406.793172
 20
2026.709524
 30
0.0
 11
413.281947
 21
2033.198299
 31
0.0
  0
LINE
  5
2B8
100
AcDbEntity
  8
図面枠・表題欄
  6
CONTINUOUS
 62
     6
100
AcDbLine
 10
406.793172
 20
2026.002417
 30
0.0
 11
413.584993
 21
2032.794238
 31
0.0
  0
LINE
  5
2B9
100
AcDbEntity
  8
図面枠・表題欄
  6
CONTINUOUS
 62
     6
100
AcDbLine
 10
406.793172
 20
2025.29531
 30
0.0
 11
413.888039
 21
2032.390177
 31
0.0
  0
LINE
  5
2BA
100
AcDbEntity
  8
図面枠・表題欄
  6
CONTINUOUS
 62
     6
100
AcDbLine
 10
406.793172
 20
2024.588203
 30
0.0
 11
414.191085
 21
2031.986116
 31
0.0
  0
LINE
  5
2BB
100
AcDbEntity
  8
図面枠・表題欄
  6
CONTINUOUS
 62
     6
100
AcDbLine
 10
406.793172
 20
2023.881097
 30
0.0
 11
414.49413
 21
2031.582055
 31
0.0
  0
LINE
  5
2BC
100
AcDbEntity
  8
図面枠・表題欄
  6
CONTINUOUS
 62
     6
100
AcDbLine
 10
406.793172
 20
2023.17399
 30
0.0
 11
414.797176
 21
2031.177994
 31
0.0
  0
LINE
  5
2BD
100
AcDbEntity
  8
図面枠・表題欄
  6
CONTINUOUS
 62
     6
100
AcDbLine
 10
406.793172
 20
2022.466883
 30
0.0
 11
415.100222
 21
2030.773933
 31
0.0
  0
LINE
  5
2BE
100
AcDbEntity
  8
図面枠・表題欄
  6
CONTINUOUS
 62
     6
100
AcDbLine
 10
406.793172
 20
2021.759776
 30
0.0
 11
415.403268
 21
2030.369872
 31
0.0
  0
LINE
  5
2BF
100
AcDbEntity
  8
図面枠・表題欄
  6
CONTINUOUS
 62
     6
100
AcDbLine
 10
406.793172
 20
2021.05267
 30
0.0
 11
415.706313
 21
2029.965811
 31
0.0
  0
LINE
  5
2C0
100
AcDbEntity
  8
図面枠・表題欄
  6
CONTINUOUS
 62
     6
100
AcDbLine
 10
406.793172
 20
2020.345563
 30
0.0
 11
416.009359
 21
2029.56175
 31
0.0
  0
LINE
  5
2C1
100
AcDbEntity
  8
図面枠・表題欄
  6
CONTINUOUS
 62
     6
100
AcDbLine
 10
406.793172
 20
2019.638456
 30
0.0
 11
416.312405
 21
2029.157689
 31
0.0
  0
LINE
  5
2C2
100
AcDbEntity
  8
図面枠・表題欄
  6
CONTINUOUS
 62
     6
100
AcDbLine
 10
406.793172
 20
2018.931349
 30
0.0
 11
416.615451
 21
2028.753628
 31
0.0
  0
LINE
  5
2C3
100
AcDbEntity
  8
図面枠・表題欄
  6
CONTINUOUS
 62
     6
100
AcDbLine
 10
406.793172
 20
2018.224242
 30
0.0
 11
416.918496
 21
2028.349567
 31
0.0
  0
LINE
  5
2C4
100
AcDbEntity
  8
図面枠・表題欄
  6
CONTINUOUS
 62
     6
100
AcDbLine
 10
406.793172
 20
2017.517136
 30
0.0
 11
417.221542
 21
2027.945506
 31
0.0
  0
LINE
  5
2C5
100
AcDbEntity
  8
図面枠・表題欄
  6
CONTINUOUS
 62
     6
100
AcDbLine
 10
406.793172
 20
2016.810029
 30
0.0
 11
417.524588
 21
2027.541445
 31
0.0
  0
LINE
  5
2C6
100
AcDbEntity
  8
図面枠・表題欄
  6
CONTINUOUS
 62
     6
100
AcDbLine
 10
406.793172
 20
2016.102922
 30
0.0
 11
417.827634
 21
2027.137384
 31
0.0
  0
LINE
  5
2C7
100
AcDbEntity
  8
図面枠・表題欄
  6
CONTINUOUS
 62
     6
100
AcDbLine
 10
406.793172
 20
2015.395815
 30
0.0
 11
412.868172
 21
2021.470815
 31
0.0
  0
LINE
  5
2C8
100
AcDbEntity
  8
図面枠・表題欄
  6
CONTINUOUS
 62
     6
100
AcDbLine
 10
412.923537
 20
2021.52618
 30
0.0
 11
418.13068
 21
2026.733323
 31
0.0
  0
LINE
  5
2C9
100
AcDbEntity
  8
図面枠・表題欄
  6
CONTINUOUS
 62
     6
100
AcDbLine
 10
406.793172
 20
2014.688708
 30
0.0
 11
412.868172
 21
2020.763708
 31
0.0
  0
LINE
  5
2CA
100
AcDbEntity
  8
図面枠・表題欄
  6
CONTINUOUS
 62
     6
100
AcDbLine
 10
413.226582
 20
2021.122119
 30
0.0
 11
418.433725
 21
2026.329262
 31
0.0
  0
LINE
  5
2CB
100
AcDbEntity
  8
図面枠・表題欄
  6
CONTINUOUS
 62
     6
100
AcDbLine
 10
406.793172
 20
2013.981602
 30
0.0
 11
412.868172
 21
2020.056602
 31
0.0
  0
LINE
  5
2CC
100
AcDbEntity
  8
図面枠・表題欄
  6
CONTINUOUS
 62
     6
100
AcDbLine
 10
413.529628
 20
2020.718058
 30
0.0
 11
418.736771
 21
2025.925201
 31
0.0
  0
LINE
  5
2CD
100
AcDbEntity
  8
図面枠・表題欄
  6
CONTINUOUS
 62
     6
100
AcDbLine
 10
406.793172
 20
2013.274495
 30
0.0
 11
412.868172
 21
2019.349495
 31
0.0
  0
LINE
  5
2CE
100
AcDbEntity
  8
図面枠・表題欄
  6
CONTINUOUS
 62
     6
100
AcDbLine
 10
413.832674
 20
2020.313997
 30
0.0
 11
419.039817
 21
2025.52114
 31
0.0
  0
LINE
  5
2CF
100
AcDbEntity
  8
図面枠・表題欄
  6
CONTINUOUS
 62
     6
100
AcDbLine
 10
406.793172
 20
2012.567388
 30
0.0
 11
412.868172
 21
2018.642388
 31
0.0
  0
LINE
  5
2D0
100
AcDbEntity
  8
図面枠・表題欄
  6
CONTINUOUS
 62
     6
100
AcDbLine
 10
414.13572
 20
2019.909936
 30
0.0
 11
419.342863
 21
2025.117079
 31
0.0
  0
LINE
  5
2D1
100
AcDbEntity
  8
図面枠・表題欄
  6
CONTINUOUS
 62
     6
100
AcDbLine
 10
406.793172
 20
2011.860281
 30
0.0
 11
412.868172
 21
2017.935281
 31
0.0
  0
LINE
  5
2D2
100
AcDbEntity
  8
図面枠・表題欄
  6
CONTINUOUS
 62
     6
100
AcDbLine
 10
414.438765
 20
2019.505875
 30
0.0
 11
419.645908
 21
2024.713018
 31
0.0
  0
LINE
  5
2D3
100
AcDbEntity
  8
図面枠・表題欄
  6
CONTINUOUS
 62
     6
100
AcDbLine
 10
406.793172
 20
2011.153175
 30
0.0
 11
412.868172
 21
2017.228175
 31
0.0
  0
LINE
  5
2D4
100
AcDbEntity
  8
図面枠・表題欄
  6
CONTINUOUS
 62
     6
100
AcDbLine
 10
414.741811
 20
2019.101814
 30
0.0
 11
419.948954
 21
2024.308957
 31
0.0
  0
LINE
  5
2D5
100
AcDbEntity
  8
図面枠・表題欄
  6
CONTINUOUS
 62
     6
100
AcDbLine
 10
406.793172
 20
2010.446068
 30
0.0
 11
412.868172
 21
2016.521068
 31
0.0
  0
LINE
  5
2D6
100
AcDbEntity
  8
図面枠・表題欄
  6
CONTINUOUS
 62
     6
100
AcDbLine
 10
415.044857
 20
2018.697753
 30
0.0
 11
420.252
 21
2023.904896
 31
0.0
  0
LINE
  5
2D7
100
AcDbEntity
  8
図面枠・表題欄
  6
CONTINUOUS
 62
     6
100
AcDbLine
 10
406.793172
 20
2009.738961
 30
0.0
 11
412.868172
 21
2015.813961
 31
0.0
  0
LINE
  5
2D8
100
AcDbEntity
  8
図面枠・表題欄
  6
CONTINUOUS
 62
     6
100
AcDbLine
 10
415.347903
 20
2018.293692
 30
0.0
 11
420.555046
 21
2023.500835
 31
0.0
  0
LINE
  5
2D9
100
AcDbEntity
  8
図面枠・表題欄
  6
CONTINUOUS
 62
     6
100
AcDbLine
 10
406.793172
 20
2009.031854
 30
0.0
 11
412.868172
 21
2015.106854
 31
0.0
  0
LINE
  5
2DA
100
AcDbEntity
  8
図面枠・表題欄
  6
CONTINUOUS
 62
     6
100
AcDbLine
 10
415.650949
 20
2017.889631
 30
0.0
 11
420.858091
 21
2023.096774
 31
0.0
  0
LINE
  5
2DB
100
AcDbEntity
  8
図面枠・表題欄
  6
CONTINUOUS
 62
     6
100
AcDbLine
 10
431.093172
 20
2033.331854
 30
0.0
 11
431.511318
 21
2033.75
 31
0.0
  0
LINE
  5
2DC
100
AcDbEntity
  8
図面枠・表題欄
  6
CONTINUOUS
 62
     6
100
AcDbLine
 10
406.793172
 20
2008.324747
 30
0.0
 11
412.868172
 21
2014.399747
 31
0.0
  0
LINE
  5
2DD
100
AcDbEntity
  8
図面枠・表題欄
  6
CONTINUOUS
 62
     6
100
AcDbLine
 10
415.953994
 20
2017.48557
 30
0.0
 11
421.161137
 21
2022.692713
 31
0.0
  0
LINE
  5
2DE
100
AcDbEntity
  8
図面枠・表題欄
  6
CONTINUOUS
 62
     6
100
AcDbLine
 10
431.093172
 20
2032.624747
 30
0.0
 11
432.218424
 21
2033.75
 31
0.0
  0
LINE
  5
2DF
100
AcDbEntity
  8
図面枠・表題欄
  6
CONTINUOUS
 62
     6
100
AcDbLine
 10
406.793172
 20
2007.617641
 30
0.0
 11
412.868172
 21
2013.692641
 31
0.0
  0
LINE
  5
2E0
100
AcDbEntity
  8
図面枠・表題欄
  6
CONTINUOUS
 62
     6
100
AcDbLine
 10
416.25704
 20
2017.081509
 30
0.0
 11
421.464183
 21
2022.288652
 31
0.0
  0
LINE
  5
2E1
100
AcDbEntity
  8
図面枠・表題欄
  6
CONTINUOUS
 62
     6
100
AcDbLine
 10
431.093172
 20
2031.917641
 30
0.0
 11
432.925531
 21
2033.75
 31
0.0
  0
LINE
  5
2E2
100
AcDbEntity
  8
図面枠・表題欄
  6
CONTINUOUS
 62
     6
100
AcDbLine
 10
406.793172
 20
2006.910534
 30
0.0
 11
412.868172
 21
2012.985534
 31
0.0
  0
LINE
  5
2E3
100
AcDbEntity
  8
図面枠・表題欄
  6
CONTINUOUS
 62
     6
100
AcDbLine
 10
416.560086
 20
2016.677448
 30
0.0
 11
421.767229
 21
2021.884591
 31
0.0
  0
LINE
  5
2E4
100
AcDbEntity
  8
図面枠・表題欄
  6
CONTINUOUS
 62
     6
100
AcDbLine
 10
431.093172
 20
2031.210534
 30
0.0
 11
433.632638
 21
2033.75
 31
0.0
  0
LINE
  5
2E5
100
AcDbEntity
  8
図面枠・表題欄
  6
CONTINUOUS
 62
     6
100
AcDbLine
 10
406.793172
 20
2006.203427
 30
0.0
 11
412.868172
 21
2012.278427
 31
0.0
  0
LINE
  5
2E6
100
AcDbEntity
  8
図面枠・表題欄
  6
CONTINUOUS
 62
     6
100
AcDbLine
 10
416.863132
 20
2016.273387
 30
0.0
 11
422.070274
 21
2021.48053
 31
0.0
  0
LINE
  5
2E7
100
AcDbEntity
  8
図面枠・表題欄
  6
CONTINUOUS
 62
     6
100
AcDbLine
 10
431.093172
 20
2030.503427
 30
0.0
 11
434.339745
 21
2033.75
 31
0.0
  0
LINE
  5
2E8
100
AcDbEntity
  8
図面枠・表題欄
  6
CONTINUOUS
 62
     6
100
AcDbLine
 10
406.793172
 20
2005.49632
 30
0.0
 11
412.868172
 21
2011.57132
 31
0.0
  0
LINE
  5
2E9
100
AcDbEntity
  8
図面枠・表題欄
  6
CONTINUOUS
 62
     6
100
AcDbLine
 10
417.166177
 20
2015.869326
 30
0.0
 11
422.37332
 21
2021.076469
 31
0.0
  0
LINE
  5
2EA
100
AcDbEntity
  8
図面枠・表題欄
  6
CONTINUOUS
 62
     6
100
AcDbLine
 10
431.093172
 20
2029.79632
 30
0.0
 11
435.046851
 21
2033.75
 31
0.0
  0
LINE
  5
2EB
100
AcDbEntity
  8
図面枠・表題欄
  6
CONTINUOUS
 62
     6
100
AcDbLine
 10
406.793172
 20
2004.789214
 30
0.0
 11
412.868172
 21
2010.864214
 31
0.0
  0
LINE
  5
2EC
100
AcDbEntity
  8
図面枠・表題欄
  6
CONTINUOUS
 62
     6
100
AcDbLine
 10
417.469223
 20
2015.465265
 30
0.0
 11
422.676366
 21
2020.672408
 31
0.0
  0
LINE
  5
2ED
100
AcDbEntity
  8
図面枠・表題欄
  6
CONTINUOUS
 62
     6
100
AcDbLine
 10
431.093172
 20
2029.089214
 30
0.0
 11
435.753958
 21
2033.75
 31
0.0
  0
LINE
  5
2EE
100
AcDbEntity
  8
図面枠・表題欄
  6
CONTINUOUS
 62
     6
100
AcDbLine
 10
406.793172
 20
2004.082107
 30
0.0
 11
412.868172
 21
2010.157107
 31
0.0
  0
LINE
  5
2EF
100
AcDbEntity
  8
図面枠・表題欄
  6
CONTINUOUS
 62
     6
100
AcDbLine
 10
417.772269
 20
2015.061204
 30
0.0
 11
422.979412
 21
2020.268347
 31
0.0
  0
LINE
  5
2F0
100
AcDbEntity
  8
図面枠・表題欄
  6
CONTINUOUS
 62
     6
100
AcDbLine
 10
431.093172
 20
2028.382107
 30
0.0
 11
436.461065
 21
2033.75
 31
0.0
  0
LINE
  5
2F1
100
AcDbEntity
  8
図面枠・表題欄
  6
CONTINUOUS
 62
     6
100
AcDbLine
 10
406.793172
 20
2003.375
 30
0.0
 11
412.868172
 21
2009.45
 31
0.0
  0
LINE
  5
2F2
100
AcDbEntity
  8
図面枠・表題欄
  6
CONTINUOUS
 62
     6
100
AcDbLine
 10
418.075315
 20
2014.657143
 30
0.0
 11
423.282457
 21
2019.864286
 31
0.0
  0
LINE
  5
2F3
100
AcDbEntity
  8
図面枠・表題欄
  6
CONTINUOUS
 62
     6
100
AcDbLine
 10
431.093172
 20
2027.675
 30
0.0
 11
437.168172
 21
2033.75
 31
0.0
  0
LINE
  5
2F4
100
AcDbEntity
  8
図面枠・表題欄
  6
CONTINUOUS
 62
     6
100
AcDbLine
 10
406.793172
 20
2002.667893
 30
0.0
 11
412.868172
 21
2008.742893
 31
0.0
  0
LINE
  5
2F5
100
AcDbEntity
  8
図面枠・表題欄
  6
CONTINUOUS
 62
     6
100
AcDbLine
 10
418.37836
 20
2014.253082
 30
0.0
 11
423.585503
 21
2019.460225
 31
0.0
  0
LINE
  5
2F6
100
AcDbEntity
  8
図面枠・表題欄
  6
CONTINUOUS
 62
     6
100
AcDbLine
 10
431.093172
 20
2026.967893
 30
0.0
 11
437.168172
 21
2033.042893
 31
0.0
  0
LINE
  5
2F7
100
AcDbEntity
  8
図面枠・表題欄
  6
CONTINUOUS
 62
     6
100
AcDbLine
 10
406.793172
 20
2001.960786
 30
0.0
 11
412.868172
 21
2008.035786
 31
0.0
  0
LINE
  5
2F8
100
AcDbEntity
  8
図面枠・表題欄
  6
CONTINUOUS
 62
     6
100
AcDbLine
 10
418.681406
 20
2013.849021
 30
0.0
 11
423.888549
 21
2019.056164
 31
0.0
  0
LINE
  5
2F9
100
AcDbEntity
  8
図面枠・表題欄
  6
CONTINUOUS
 62
     6
100
AcDbLine
 10
431.093172
 20
2026.260786
 30
0.0
 11
437.168172
 21
2032.335786
 31
0.0
  0
LINE
  5
2FA
100
AcDbEntity
  8
図面枠・表題欄
  6
CONTINUOUS
 62
     6
100
AcDbLine
 10
406.793172
 20
2001.25368
 30
0.0
 11
412.868172
 21
2007.32868
 31
0.0
  0
LINE
  5
2FB
100
AcDbEntity
  8
図面枠・表題欄
  6
CONTINUOUS
 62
     6
100
AcDbLine
 10
418.984452
 20
2013.44496
 30
0.0
 11
424.191595
 21
2018.652103
 31
0.0
  0
LINE
  5
2FC
100
AcDbEntity
  8
図面枠・表題欄
  6
CONTINUOUS
 62
     6
100
AcDbLine
 10
431.093172
 20
2025.55368
 30
0.0
 11
437.168172
 21
2031.62868
 31
0.0
  0
LINE
  5
2FD
100
AcDbEntity
  8
図面枠・表題欄
  6
CONTINUOUS
 62
     6
100
AcDbLine
 10
406.793172
 20
2000.546573
 30
0.0
 11
412.868172
 21
2006.621573
 31
0.0
  0
LINE
  5
2FE
100
AcDbEntity
  8
図面枠・表題欄
  6
CONTINUOUS
 62
     6
100
AcDbLine
 10
419.287498
 20
2013.040899
 30
0.0
 11
424.494641
 21
2018.248042
 31
0.0
  0
LINE
  5
2FF
100
AcDbEntity
  8
図面枠・表題欄
  6
CONTINUOUS
 62
     6
100
AcDbLine
 10
431.093172
 20
2024.846573
 30
0.0
 11
437.168172
 21
2030.921573
 31
0.0
  0
LINE
  5
300
100
AcDbEntity
  8
図面枠・表題欄
  6
CONTINUOUS
 62
     6
100
AcDbLine
 10
406.793172
 20
1999.839466
 30
0.0
 11
412.868172
 21
2005.914466
 31
0.0
  0
LINE
  5
301
100
AcDbEntity
  8
図面枠・表題欄
  6
CONTINUOUS
 62
     6
100
AcDbLine
 10
419.590543
 20
2012.636838
 30
0.0
 11
424.797686
 21
2017.843981
 31
0.0
  0
LINE
  5
302
100
AcDbEntity
  8
図面枠・表題欄
  6
CONTINUOUS
 62
     6
100
AcDbLine
 10
431.093172
 20
2024.139466
 30
0.0
 11
437.168172
 21
2030.214466
 31
0.0
  0
LINE
  5
303
100
AcDbEntity
  8
図面枠・表題欄
  6
CONTINUOUS
 62
     6
100
AcDbLine
 10
406.793172
 20
1999.132359
 30
0.0
 11
412.868172
 21
2005.207359
 31
0.0
  0
LINE
  5
304
100
AcDbEntity
  8
図面枠・表題欄
  6
CONTINUOUS
 62
     6
100
AcDbLine
 10
419.893589
 20
2012.232777
 30
0.0
 11
425.100732
 21
2017.43992
 31
0.0
  0
LINE
  5
305
100
AcDbEntity
  8
図面枠・表題欄
  6
CONTINUOUS
 62
     6
100
AcDbLine
 10
431.093172
 20
2023.432359
 30
0.0
 11
437.168172
 21
2029.507359
 31
0.0
  0
LINE
  5
306
100
AcDbEntity
  8
図面枠・表題欄
  6
CONTINUOUS
 62
     6
100
AcDbLine
 10
406.793172
 20
1998.425253
 30
0.0
 11
412.868172
 21
2004.500253
 31
0.0
  0
LINE
  5
307
100
AcDbEntity
  8
図面枠・表題欄
  6
CONTINUOUS
 62
     6
100
AcDbLine
 10
420.196635
 20
2011.828716
 30
0.0
 11
425.403778
 21
2017.035859
 31
0.0
  0
LINE
  5
308
100
AcDbEntity
  8
図面枠・表題欄
  6
CONTINUOUS
 62
     6
100
AcDbLine
 10
431.093172
 20
2022.725253
 30
0.0
 11
437.168172
 21
2028.800253
 31
0.0
  0
LINE
  5
309
100
AcDbEntity
  8
図面枠・表題欄
  6
CONTINUOUS
 62
     6
100
AcDbLine
 10
406.793172
 20
1997.718146
 30
0.0
 11
412.868172
 21
2003.793146
 31
0.0
  0
LINE
  5
30A
100
AcDbEntity
  8
図面枠・表題欄
  6
CONTINUOUS
 62
     6
100
AcDbLine
 10
420.499681
 20
2011.424655
 30
0.0
 11
425.706824
 21
2016.631798
 31
0.0
  0
LINE
  5
30B
100
AcDbEntity
  8
図面枠・表題欄
  6
CONTINUOUS
 62
     6
100
AcDbLine
 10
431.093172
 20
2022.018146
 30
0.0
 11
437.168172
 21
2028.093146
 31
0.0
  0
LINE
  5
30C
100
AcDbEntity
  8
図面枠・表題欄
  6
CONTINUOUS
 62
     6
100
AcDbLine
 10
407.082133
 20
1997.3
 30
0.0
 11
412.868172
 21
2003.086039
 31
0.0
  0
LINE
  5
30D
100
AcDbEntity
  8
図面枠・表題欄
  6
CONTINUOUS
 62
     6
100
AcDbLine
 10
420.802726
 20
2011.020594
 30
0.0
 11
426.009869
 21
2016.227737
 31
0.0
  0
LINE
  5
30E
100
AcDbEntity
  8
図面枠・表題欄
  6
CONTINUOUS
 62
     6
100
AcDbLine
 10
431.093172
 20
2021.311039
 30
0.0
 11
437.168172
 21
2027.386039
 31
0.0
  0
LINE
  5
30F
100
AcDbEntity
  8
図面枠・表題欄
  6
CONTINUOUS
 62
     6
100
AcDbLine
 10
407.78924
 20
1997.3
 30
0.0
 11
412.868172
 21
2002.378932
 31
0.0
  0
LINE
  5
310
100
AcDbEntity
  8
図面枠・表題欄
  6
CONTINUOUS
 62
     6
100
AcDbLine
 10
421.105772
 20
2010.616533
 30
0.0
 11
426.312915
 21
2015.823676
 31
0.0
  0
LINE
  5
311
100
AcDbEntity
  8
図面枠・表題欄
  6
CONTINUOUS
 62
     6
100
AcDbLine
 10
431.093172
 20
2020.603932
 30
0.0
 11
437.168172
 21
2026.678932
 31
0.0
  0
LINE
  5
312
100
AcDbEntity
  8
図面枠・表題欄
  6
CONTINUOUS
 62
     6
100
AcDbLine
 10
408.496346
 20
1997.3
 30
0.0
 11
412.868172
 21
2001.671825
 31
0.0
  0
LINE
  5
313
100
AcDbEntity
  8
図面枠・表題欄
  6
CONTINUOUS
 62
     6
100
AcDbLine
 10
421.408818
 20
2010.212472
 30
0.0
 11
426.615961
 21
2015.419615
 31
0.0
  0
LINE
  5
314
100
AcDbEntity
  8
図面枠・表題欄
  6
CONTINUOUS
 62
     6
100
AcDbLine
 10
431.093172
 20
2019.896825
 30
0.0
 11
437.168172
 21
2025.971825
 31
0.0
  0
LINE
  5
315
100
AcDbEntity
  8
図面枠・表題欄
  6
CONTINUOUS
 62
     6
100
AcDbLine
 10
409.203453
 20
1997.3
 30
0.0
 11
412.868172
 21
2000.964719
 31
0.0
  0
LINE
  5
316
100
AcDbEntity
  8
図面枠・表題欄
  6
CONTINUOUS
 62
     6
100
AcDbLine
 10
421.711864
 20
2009.808411
 30
0.0
 11
426.919007
 21
2015.015554
 31
0.0
  0
LINE
  5
317
100
AcDbEntity
  8
図面枠・表題欄
  6
CONTINUOUS
 62
     6
100
AcDbLine
 10
431.093172
 20
2019.189719
 30
0.0
 11
437.168172
 21
2025.264719
 31
0.0
  0
LINE
  5
318
100
AcDbEntity
  8
図面枠・表題欄
  6
CONTINUOUS
 62
     6
100
AcDbLine
 10
409.91056
 20
1997.3
 30
0.0
 11
412.868172
 21
2000.257612
 31
0.0
  0
LINE
  5
319
100
AcDbEntity
  8
図面枠・表題欄
  6
CONTINUOUS
 62
     6
100
AcDbLine
 10
422.01491
 20
2009.40435
 30
0.0
 11
427.222052
 21
2014.611492
 31
0.0
  0
LINE
  5
31A
100
AcDbEntity
  8
図面枠・表題欄
  6
CONTINUOUS
 62
     6
100
AcDbLine
 10
431.093172
 20
2018.482612
 30
0.0
 11
437.168172
 21
2024.557612
 31
0.0
  0
LINE
  5
31B
100
AcDbEntity
  8
図面枠・表題欄
  6
CONTINUOUS
 62
     6
100
AcDbLine
 10
410.617667
 20
1997.3
 30
0.0
 11
412.868172
 21
1999.550505
 31
0.0
  0
LINE
  5
31C
100
AcDbEntity
  8
図面枠・表題欄
  6
CONTINUOUS
 62
     6
100
AcDbLine
 10
422.317955
 20
2009.000289
 30
0.0
 11
427.525098
 21
2014.207431
 31
0.0
  0
LINE
  5
31D
100
AcDbEntity
  8
図面枠・表題欄
  6
CONTINUOUS
 62
     6
100
AcDbLine
 10
431.093172
 20
2017.775505
 30
0.0
 11
437.168172
 21
2023.850505
 31
0.0
  0
LINE
  5
31E
100
AcDbEntity
  8
図面枠・表題欄
  6
CONTINUOUS
 62
     6
100
AcDbLine
 10
411.324773
 20
1997.3
 30
0.0
 11
412.868172
 21
1998.843398
 31
0.0
  0
LINE
  5
31F
100
AcDbEntity
  8
図面枠・表題欄
  6
CONTINUOUS
 62
     6
100
AcDbLine
 10
422.621001
 20
2008.596228
 30
0.0
 11
427.828144
 21
2013.80337
 31
0.0
  0
LINE
  5
320
100
AcDbEntity
  8
図面枠・表題欄
  6
CONTINUOUS
 62
     6
100
AcDbLine
 10
431.093172
 20
2017.068398
 30
0.0
 11
437.168172
 21
2023.143398
 31
0.0
  0
LINE
  5
321
100
AcDbEntity
  8
図面枠・表題欄
  6
CONTINUOUS
 62
     6
100
AcDbLine
 10
412.03188
 20
1997.3
 30
0.0
 11
412.868172
 21
1998.136292
 31
0.0
  0
LINE
  5
322
100
AcDbEntity
  8
図面枠・表題欄
  6
CONTINUOUS
 62
     6
100
AcDbLine
 10
422.924047
 20
2008.192167
 30
0.0
 11
428.13119
 21
2013.399309
 31
0.0
  0
LINE
  5
323
100
AcDbEntity
  8
図面枠・表題欄
  6
CONTINUOUS
 62
     6
100
AcDbLine
 10
431.093172
 20
2016.361292
 30
0.0
 11
437.168172
 21
2022.436292
 31
0.0
  0
LINE
  5
324
100
AcDbEntity
  8
図面枠・表題欄
  6
CONTINUOUS
 62
     6
100
AcDbLine
 10
412.738987
 20
1997.3
 30
0.0
 11
412.868172
 21
1997.429185
 31
0.0
  0
LINE
  5
325
100
AcDbEntity
  8
図面枠・表題欄
  6
CONTINUOUS
 62
     6
100
AcDbLine
 10
423.227093
 20
2007.788106
 30
0.0
 11
428.434235
 21
2012.995248
 31
0.0
  0
LINE
  5
326
100
AcDbEntity
  8
図面枠・表題欄
  6
CONTINUOUS
 62
     6
100
AcDbLine
 10
431.093172
 20
2015.654185
 30
0.0
 11
437.168172
 21
2021.729185
 31
0.0
  0
LINE
  5
327
100
AcDbEntity
  8
図面枠・表題欄
  6
CONTINUOUS
 62
     6
100
AcDbLine
 10
423.530138
 20
2007.384045
 30
0.0
 11
428.737281
 21
2012.591187
 31
0.0
  0
LINE
  5
328
100
AcDbEntity
  8
図面枠・表題欄
  6
CONTINUOUS
 62
     6
100
AcDbLine
 10
431.093172
 20
2014.947078
 30
0.0
 11
437.168172
 21
2021.022078
 31
0.0
  0
LINE
  5
329
100
AcDbEntity
  8
図面枠・表題欄
  6
CONTINUOUS
 62
     6
100
AcDbLine
 10
423.833184
 20
2006.979984
 30
0.0
 11
429.040327
 21
2012.187126
 31
0.0
  0
LINE
  5
32A
100
AcDbEntity
  8
図面枠・表題欄
  6
CONTINUOUS
 62
     6
100
AcDbLine
 10
431.093172
 20
2014.239971
 30
0.0
 11
437.168172
 21
2020.314971
 31
0.0
  0
LINE
  5
32B
100
AcDbEntity
  8
図面枠・表題欄
  6
CONTINUOUS
 62
     6
100
AcDbLine
 10
424.13623
 20
2006.575923
 30
0.0
 11
429.343373
 21
2011.783065
 31
0.0
  0
LINE
  5
32C
100
AcDbEntity
  8
図面枠・表題欄
  6
CONTINUOUS
 62
     6
100
AcDbLine
 10
431.093172
 20
2013.532864
 30
0.0
 11
437.168172
 21
2019.607864
 31
0.0
  0
LINE
  5
32D
100
AcDbEntity
  8
図面枠・表題欄
  6
CONTINUOUS
 62
     6
100
AcDbLine
 10
424.439276
 20
2006.171861
 30
0.0
 11
429.646419
 21
2011.379004
 31
0.0
  0
LINE
  5
32E
100
AcDbEntity
  8
図面枠・表題欄
  6
CONTINUOUS
 62
     6
100
AcDbLine
 10
431.093172
 20
2012.825758
 30
0.0
 11
437.168172
 21
2018.900758
 31
0.0
  0
LINE
  5
32F
100
AcDbEntity
  8
図面枠・表題欄
  6
CONTINUOUS
 62
     6
100
AcDbLine
 10
424.742321
 20
2005.7678
 30
0.0
 11
429.949464
 21
2010.974943
 31
0.0
  0
LINE
  5
330
100
AcDbEntity
  8
図面枠・表題欄
  6
CONTINUOUS
 62
     6
100
AcDbLine
 10
431.093172
 20
2012.118651
 30
0.0
 11
437.168172
 21
2018.193651
 31
0.0
  0
LINE
  5
331
100
AcDbEntity
  8
図面枠・表題欄
  6
CONTINUOUS
 62
     6
100
AcDbLine
 10
425.045367
 20
2005.363739
 30
0.0
 11
430.25251
 21
2010.570882
 31
0.0
  0
LINE
  5
332
100
AcDbEntity
  8
図面枠・表題欄
  6
CONTINUOUS
 62
     6
100
AcDbLine
 10
431.093172
 20
2011.411544
 30
0.0
 11
437.168172
 21
2017.486544
 31
0.0
  0
LINE
  5
333
100
AcDbEntity
  8
図面枠・表題欄
  6
CONTINUOUS
 62
     6
100
AcDbLine
 10
425.348413
 20
2004.959678
 30
0.0
 11
430.555556
 21
2010.166821
 31
0.0
  0
LINE
  5
334
100
AcDbEntity
  8
図面枠・表題欄
  6
CONTINUOUS
 62
     6
100
AcDbLine
 10
431.093172
 20
2010.704437
 30
0.0
 11
437.168172
 21
2016.779437
 31
0.0
  0
LINE
  5
335
100
AcDbEntity
  8
図面枠・表題欄
  6
CONTINUOUS
 62
     6
100
AcDbLine
 10
425.651459
 20
2004.555617
 30
0.0
 11
430.858602
 21
2009.76276
 31
0.0
  0
LINE
  5
336
100
AcDbEntity
  8
図面枠・表題欄
  6
CONTINUOUS
 62
     6
100
AcDbLine
 10
431.093172
 20
2009.99733
 30
0.0
 11
437.168172
 21
2016.07233
 31
0.0
  0
LINE
  5
337
100
AcDbEntity
  8
図面枠・表題欄
  6
CONTINUOUS
 62
     6
100
AcDbLine
 10
425.954504
 20
2004.151556
 30
0.0
 11
437.168172
 21
2015.365224
 31
0.0
  0
LINE
  5
338
100
AcDbEntity
  8
図面枠・表題欄
  6
CONTINUOUS
 62
     6
100
AcDbLine
 10
426.25755
 20
2003.747495
 30
0.0
 11
437.168172
 21
2014.658117
 31
0.0
  0
LINE
  5
339
100
AcDbEntity
  8
図面枠・表題欄
  6
CONTINUOUS
 62
     6
100
AcDbLine
 10
426.560596
 20
2003.343434
 30
0.0
 11
437.168172
 21
2013.95101
 31
0.0
  0
LINE
  5
33A
100
AcDbEntity
  8
図面枠・表題欄
  6
CONTINUOUS
 62
     6
100
AcDbLine
 10
426.863642
 20
2002.939373
 30
0.0
 11
437.168172
 21
2013.243903
 31
0.0
  0
LINE
  5
33B
100
AcDbEntity
  8
図面枠・表題欄
  6
CONTINUOUS
 62
     6
100
AcDbLine
 10
427.166688
 20
2002.535312
 30
0.0
 11
437.168172
 21
2012.536797
 31
0.0
  0
LINE
  5
33C
100
AcDbEntity
  8
図面枠・表題欄
  6
CONTINUOUS
 62
     6
100
AcDbLine
 10
427.469733
 20
2002.131251
 30
0.0
 11
437.168172
 21
2011.82969
 31
0.0
  0
LINE
  5
33D
100
AcDbEntity
  8
図面枠・表題欄
  6
CONTINUOUS
 62
     6
100
AcDbLine
 10
427.772779
 20
2001.72719
 30
0.0
 11
437.168172
 21
2011.122583
 31
0.0
  0
LINE
  5
33E
100
AcDbEntity
  8
図面枠・表題欄
  6
CONTINUOUS
 62
     6
100
AcDbLine
 10
428.075825
 20
2001.323129
 30
0.0
 11
437.168172
 21
2010.415476
 31
0.0
  0
LINE
  5
33F
100
AcDbEntity
  8
図面枠・表題欄
  6
CONTINUOUS
 62
     6
100
AcDbLine
 10
428.378871
 20
2000.919068
 30
0.0
 11
437.168172
 21
2009.708369
 31
0.0
  0
LINE
  5
340
100
AcDbEntity
  8
図面枠・表題欄
  6
CONTINUOUS
 62
     6
100
AcDbLine
 10
428.681916
 20
2000.515007
 30
0.0
 11
437.168172
 21
2009.001263
 31
0.0
  0
LINE
  5
341
100
AcDbEntity
  8
図面枠・表題欄
  6
CONTINUOUS
 62
     6
100
AcDbLine
 10
428.984962
 20
2000.110946
 30
0.0
 11
437.168172
 21
2008.294156
 31
0.0
  0
LINE
  5
342
100
AcDbEntity
  8
図面枠・表題欄
  6
CONTINUOUS
 62
     6
100
AcDbLine
 10
429.288008
 20
1999.706885
 30
0.0
 11
437.168172
 21
2007.587049
 31
0.0
  0
LINE
  5
343
100
AcDbEntity
  8
図面枠・表題欄
  6
CONTINUOUS
 62
     6
100
AcDbLine
 10
429.591054
 20
1999.302824
 30
0.0
 11
437.168172
 21
2006.879942
 31
0.0
  0
LINE
  5
344
100
AcDbEntity
  8
図面枠・表題欄
  6
CONTINUOUS
 62
     6
100
AcDbLine
 10
429.894099
 20
1998.898763
 30
0.0
 11
437.168172
 21
2006.172836
 31
0.0
  0
LINE
  5
345
100
AcDbEntity
  8
図面枠・表題欄
  6
CONTINUOUS
 62
     6
100
AcDbLine
 10
430.197145
 20
1998.494702
 30
0.0
 11
437.168172
 21
2005.465729
 31
0.0
  0
LINE
  5
346
100
AcDbEntity
  8
図面枠・表題欄
  6
CONTINUOUS
 62
     6
100
AcDbLine
 10
430.500191
 20
1998.090641
 30
0.0
 11
437.168172
 21
2004.758622
 31
0.0
  0
LINE
  5
347
100
AcDbEntity
  8
図面枠・表題欄
  6
CONTINUOUS
 62
     6
100
AcDbLine
 10
430.803237
 20
1997.68658
 30
0.0
 11
437.168172
 21
2004.051515
 31
0.0
  0
LINE
  5
348
100
AcDbEntity
  8
図面枠・表題欄
  6
CONTINUOUS
 62
     6
100
AcDbLine
 10
431.123763
 20
1997.3
 30
0.0
 11
437.168172
 21
2003.344408
 31
0.0
  0
LINE
  5
349
100
AcDbEntity
  8
図面枠・表題欄
  6
CONTINUOUS
 62
     6
100
AcDbLine
 10
431.83087
 20
1997.3
 30
0.0
 11
437.168172
 21
2002.637302
 31
0.0
  0
LINE
  5
34A
100
AcDbEntity
  8
図面枠・表題欄
  6
CONTINUOUS
 62
     6
100
AcDbLine
 10
432.537977
 20
1997.3
 30
0.0
 11
437.168172
 21
2001.930195
 31
0.0
  0
LINE
  5
34B
100
AcDbEntity
  8
図面枠・表題欄
  6
CONTINUOUS
 62
     6
100
AcDbLine
 10
433.245084
 20
1997.3
 30
0.0
 11
437.168172
 21
2001.223088
 31
0.0
  0
LINE
  5
34C
100
AcDbEntity
  8
図面枠・表題欄
  6
CONTINUOUS
 62
     6
100
AcDbLine
 10
433.95219
 20
1997.3
 30
0.0
 11
437.168172
 21
2000.515981
 31
0.0
  0
LINE
  5
34D
100
AcDbEntity
  8
図面枠・表題欄
  6
CONTINUOUS
 62
     6
100
AcDbLine
 10
434.659297
 20
1997.3
 30
0.0
 11
437.168172
 21
1999.808875
 31
0.0
  0
LINE
  5
34E
100
AcDbEntity
  8
図面枠・表題欄
  6
CONTINUOUS
 62
     6
100
AcDbLine
 10
435.366404
 20
1997.3
 30
0.0
 11
437.168172
 21
1999.101768
 31
0.0
  0
LINE
  5
34F
100
AcDbEntity
  8
図面枠・表題欄
  6
CONTINUOUS
 62
     6
100
AcDbLine
 10
436.073511
 20
1997.3
 30
0.0
 11
437.168172
 21
1998.394661
 31
0.0
  0
LINE
  5
350
100
AcDbEntity
  8
図面枠・表題欄
  6
CONTINUOUS
 62
     6
100
AcDbLine
 10
436.780618
 20
1997.3
 30
0.0
 11
437.168172
 21
1997.687554
 31
0.0
  0
LINE
  5
351
100
AcDbEntity
  8
図面枠・表題欄
  6
CONTINUOUS
 62
     7
100
AcDbLine
 10
-1043.5
 20
1915.0
 30
0.0
 11
1745.0
 21
1915.0
 31
0.0
  0
TEXT
  5
353
100
AcDbEntity
  8
図面枠・表題欄
  6
CONTINUOUS
 62
     7
100
AcDbText
 10
225.75
 20
1940.0
 30
0.0
 40
37.5
  1
ＯＦＬＥＸ
  7
EXCADTTF1
 72
     5
 11
475.75
 21
1940.0
 31
0.0
100
AcDbText
  0
LINE
  5
354
100
AcDbEntity
  8
図面枠・表題欄
  6
CONTINUOUS
 62
     2
100
AcDbLine
 10
366.698172
 20
2003.375
 30
0.0
 11
345.435672
 21
2003.375
 31
0.0
  0
LINE
  5
355
100
AcDbEntity
  8
図面枠・表題欄
  6
CONTINUOUS
 62
     2
100
AcDbLine
 10
366.698172
 20
2027.675
 30
0.0
 11
345.435672
 21
2003.375
 31
0.0
  0
LINE
  5
356
100
AcDbEntity
  8
図面枠・表題欄
  6
CONTINUOUS
 62
     2
100
AcDbLine
 10
366.698172
 20
1997.3
 30
0.0
 11
336.323172
 21
1997.3
 31
0.0
  0
LINE
  5
357
100
AcDbEntity
  8
図面枠・表題欄
  6
CONTINUOUS
 62
     2
100
AcDbLine
 10
366.698172
 20
2033.75
 30
0.0
 11
336.323172
 21
2033.75
 31
0.0
  0
LINE
  5
358
100
AcDbEntity
  8
図面枠・表題欄
  6
CONTINUOUS
 62
     2
100
AcDbLine
 10
378.240672
 20
2027.675
 30
0.0
 11
402.540672
 21
2027.675
 31
0.0
  0
LINE
  5
359
100
AcDbEntity
  8
図面枠・表題欄
  6
CONTINUOUS
 62
     2
100
AcDbLine
 10
378.240672
 20
2012.4875
 30
0.0
 11
401.325672
 21
2012.4875
 31
0.0
  0
LINE
  5
35A
100
AcDbEntity
  8
図面枠・表題欄
  6
CONTINUOUS
 62
     2
100
AcDbLine
 10
378.240672
 20
2018.5625
 30
0.0
 11
401.325672
 21
2018.5625
 31
0.0
  0
LINE
  5
35B
100
AcDbEntity
  8
図面枠・表題欄
  6
CONTINUOUS
 62
     2
100
AcDbLine
 10
370.950672
 20
2033.75
 30
0.0
 11
402.540672
 21
2033.75
 31
0.0
  0
LINE
  5
35C
100
AcDbEntity
  8
図面枠・表題欄
  6
CONTINUOUS
 62
     2
100
AcDbLine
 10
378.240672
 20
2003.375
 30
0.0
 11
402.540672
 21
2003.375
 31
0.0
  0
LINE
  5
35D
100
AcDbEntity
  8
図面枠・表題欄
  6
CONTINUOUS
 62
     2
100
AcDbLine
 10
370.950672
 20
1997.3
 30
0.0
 11
402.540672
 21
1997.3
 31
0.0
  0
LINE
  5
35E
100
AcDbEntity
  8
図面枠・表題欄
  6
CONTINUOUS
 62
     2
100
AcDbLine
 10
366.698172
 20
2033.75
 30
0.0
 11
366.698172
 21
2027.675
 31
0.0
  0
LINE
  5
35F
100
AcDbEntity
  8
図面枠・表題欄
  6
CONTINUOUS
 62
     2
100
AcDbLine
 10
378.240672
 20
2027.675
 30
0.0
 11
378.240672
 21
2018.5625
 31
0.0
  0
LINE
  5
360
100
AcDbEntity
  8
図面枠・表題欄
  6
CONTINUOUS
 62
     2
100
AcDbLine
 10
366.698172
 20
2003.375
 30
0.0
 11
366.698172
 21
1997.3
 31
0.0
  0
LINE
  5
361
100
AcDbEntity
  8
図面枠・表題欄
  6
CONTINUOUS
 62
     2
100
AcDbLine
 10
378.240672
 20
2012.4875
 30
0.0
 11
378.240672
 21
2003.375
 31
0.0
  0
LINE
  5
362
100
AcDbEntity
  8
図面枠・表題欄
  6
CONTINUOUS
 62
     2
100
AcDbLine
 10
370.950672
 20
2033.75
 30
0.0
 11
370.950672
 21
1997.3
 31
0.0
  0
LINE
  5
363
100
AcDbEntity
  8
図面枠・表題欄
  6
CONTINUOUS
 62
     2
100
AcDbLine
 10
412.868172
 20
2033.75
 30
0.0
 11
431.093172
 21
2009.45
 31
0.0
  0
LINE
  5
364
100
AcDbEntity
  8
図面枠・表題欄
  6
CONTINUOUS
 62
     2
100
AcDbLine
 10
431.093172
 20
2033.75
 30
0.0
 11
431.093172
 21
2009.45
 31
0.0
  0
LINE
  5
365
100
AcDbEntity
  8
図面枠・表題欄
  6
CONTINUOUS
 62
     2
100
AcDbLine
 10
431.093172
 20
2033.75
 30
0.0
 11
437.168172
 21
2033.75
 31
0.0
  0
LINE
  5
366
100
AcDbEntity
  8
図面枠・表題欄
  6
CONTINUOUS
 62
     2
100
AcDbLine
 10
431.093172
 20
1997.3
 30
0.0
 11
437.168172
 21
1997.3
 31
0.0
  0
LINE
  5
367
100
AcDbEntity
  8
図面枠・表題欄
  6
CONTINUOUS
 62
     2
100
AcDbLine
 10
412.868172
 20
2021.6
 30
0.0
 11
431.093172
 21
1997.3
 31
0.0
  0
LINE
  5
368
100
AcDbEntity
  8
図面枠・表題欄
  6
CONTINUOUS
 62
     2
100
AcDbLine
 10
412.868172
 20
2021.6
 30
0.0
 11
412.868172
 21
1997.3
 31
0.0
  0
LINE
  5
369
100
AcDbEntity
  8
図面枠・表題欄
  6
CONTINUOUS
 62
     2
100
AcDbLine
 10
437.168172
 20
2033.75
 30
0.0
 11
437.168172
 21
1997.3
 31
0.0
  0
LINE
  5
36A
100
AcDbEntity
  8
図面枠・表題欄
  6
CONTINUOUS
 62
     2
100
AcDbLine
 10
402.540672
 20
2033.75
 30
0.0
 11
402.540672
 21
2027.675
 31
0.0
  0
LINE
  5
36B
100
AcDbEntity
  8
図面枠・表題欄
  6
CONTINUOUS
 62
     2
100
AcDbLine
 10
401.325672
 20
2018.5625
 30
0.0
 11
401.325672
 21
2012.4875
 31
0.0
  0
LINE
  5
36C
100
AcDbEntity
  8
図面枠・表題欄
  6
CONTINUOUS
 62
     2
100
AcDbLine
 10
402.540672
 20
2003.375
 30
0.0
 11
402.540672
 21
1997.3
 31
0.0
  0
LINE
  5
36D
100
AcDbEntity
  8
図面枠・表題欄
  6
CONTINUOUS
 62
     2
100
AcDbLine
 10
406.793172
 20
2033.75
 30
0.0
 11
406.793172
 21
1997.3
 31
0.0
  0
LINE
  5
36E
100
AcDbEntity
  8
図面枠・表題欄
  6
CONTINUOUS
 62
     2
100
AcDbLine
 10
406.793172
 20
2033.75
 30
0.0
 11
412.868172
 21
2033.75
 31
0.0
  0
LINE
  5
36F
100
AcDbEntity
  8
図面枠・表題欄
  6
CONTINUOUS
 62
     2
100
AcDbLine
 10
406.793172
 20
1997.3
 30
0.0
 11
412.868172
 21
1997.3
 31
0.0
  0
LINE
  5
370
100
AcDbEntity
  8
図面枠・表題欄
  6
CONTINUOUS
 62
     2
100
AcDbLine
 10
294.95
 20
2033.75
 30
0.0
 11
292.990934
 21
2031.471875
 31
0.0
  0
LINE
  5
371
100
AcDbEntity
  8
図面枠・表題欄
  6
CONTINUOUS
 62
     2
100
AcDbLine
 10
336.386344
 20
2033.75
 30
0.0
 11
338.34541
 21
2031.471875
 31
0.0
  0
LINE
  5
372
100
AcDbEntity
  8
図面枠・表題欄
  6
CONTINUOUS
 62
     2
100
AcDbLine
 10
292.990934
 20
2031.471875
 30
0.0
 11
292.480023
 21
2030.877755
 31
0.0
  0
LINE
  5
373
100
AcDbEntity
  8
図面枠・表題欄
  6
CONTINUOUS
 62
     2
100
AcDbLine
 10
338.34541
 20
2031.471875
 30
0.0
 11
338.856321
 21
2030.877755
 31
0.0
  0
LINE
  5
374
100
AcDbEntity
  8
図面枠・表題欄
  6
CONTINUOUS
 62
     2
100
AcDbLine
 10
292.480023
 20
2030.877755
 30
0.0
 11
291.505754
 21
2029.335399
 31
0.0
  0
LINE
  5
375
100
AcDbEntity
  8
図面枠・表題欄
  6
CONTINUOUS
 62
     2
100
AcDbLine
 10
338.856321
 20
2030.877755
 30
0.0
 11
339.830589
 21
2029.335399
 31
0.0
  0
LINE
  5
376
100
AcDbEntity
  8
図面枠・表題欄
  6
CONTINUOUS
 62
     2
100
AcDbLine
 10
291.505754
 20
2029.335399
 30
0.0
 11
290.456922
 21
2027.675
 31
0.0
  0
LINE
  5
377
100
AcDbEntity
  8
図面枠・表題欄
  6
CONTINUOUS
 62
     2
100
AcDbLine
 10
339.830589
 20
2029.335399
 30
0.0
 11
340.879422
 21
2027.675
 31
0.0
  0
LINE
  5
378
100
AcDbEntity
  8
図面枠・表題欄
  6
CONTINUOUS
 62
     2
100
AcDbLine
 10
343.637044
 20
2011.733711
 30
0.0
 11
342.914441
 21
2009.45
 31
0.0
  0
LINE
  5
379
100
AcDbEntity
  8
図面枠・表題欄
  6
CONTINUOUS
 62
     2
100
AcDbLine
 10
342.424053
 20
2007.900179
 30
0.0
 11
342.313745
 21
2007.551562
 31
0.0
  0
LINE
  5
37A
100
AcDbEntity
  8
図面枠・表題欄
  6
CONTINUOUS
 62
     2
100
AcDbLine
 10
342.313745
 20
2007.551562
 30
0.0
 11
341.424714
 21
2004.741875
 31
0.0
  0
LINE
  5
37B
100
AcDbEntity
  8
図面枠・表題欄
  6
CONTINUOUS
 62
     2
100
AcDbLine
 10
341.424714
 20
2004.741875
 30
0.0
 11
341.169484
 21
2003.935245
 31
0.0
  0
LINE
  5
37C
100
AcDbEntity
  8
図面枠・表題欄
  6
CONTINUOUS
 62
     2
100
AcDbLine
 10
341.169484
 20
2003.935245
 30
0.0
 11
340.76562
 21
2003.375
 31
0.0
  0
LINE
  5
37D
100
AcDbEntity
  8
図面枠・表題欄
  6
CONTINUOUS
 62
     2
100
AcDbLine
 10
340.76562
 20
2003.375
 30
0.0
 11
339.568691
 21
2001.714601
 31
0.0
  0
LINE
  5
37E
100
AcDbEntity
  8
図面枠・表題欄
  6
CONTINUOUS
 62
     2
100
AcDbLine
 10
339.568691
 20
2001.714601
 30
0.0
 11
338.028572
 21
1999.578125
 31
0.0
  0
LINE
  5
37F
100
AcDbEntity
  8
図面枠・表題欄
  6
CONTINUOUS
 62
     2
100
AcDbLine
 10
338.028572
 20
1999.578125
 30
0.0
 11
336.386344
 21
1997.3
 31
0.0
  0
LINE
  5
380
100
AcDbEntity
  8
図面枠・表題欄
  6
CONTINUOUS
 62
     2
100
AcDbLine
 10
357.585672
 20
2027.675
 30
0.0
 11
340.879422
 21
2027.675
 31
0.0
  0
LINE
  5
381
100
AcDbEntity
  8
図面枠・表題欄
  6
CONTINUOUS
 62
     2
100
AcDbLine
 10
357.585672
 20
2027.675
 30
0.0
 11
343.637044
 21
2011.733711
 31
0.0
  0
LINE
  5
382
100
AcDbEntity
  8
図面枠・表題欄
  6
CONTINUOUS
 62
     2
100
AcDbLine
 10
290.456922
 20
2027.675
 30
0.0
 11
279.7625
 21
2027.675
 31
0.0
  0
ARC
  5
383
100
AcDbEntity
  8
図面枠・表題欄
  6
CONTINUOUS
 62
     2
100
AcDbCircle
 10
313.238172
 20
2015.525
 30
0.0
 40
25.81875
100
AcDbArc
 50
135.099128
 51
151.927513
  0
LINE
  5
384
100
AcDbEntity
  8
図面枠・表題欄
  6
CONTINUOUS
 62
     2
100
AcDbLine
 10
279.7625
 20
2027.675
 30
0.0
 11
279.7625
 21
1997.3
 31
0.0
  0
LINE
  5
385
100
AcDbEntity
  8
図面枠・表題欄
  6
CONTINUOUS
 62
     2
100
AcDbLine
 10
258.5
 20
2033.75
 30
0.0
 11
258.5
 21
2027.675
 31
0.0
  0
LINE
  5
386
100
AcDbEntity
  8
図面枠・表題欄
  6
CONTINUOUS
 62
     2
100
AcDbLine
 10
273.6875
 20
2027.675
 30
0.0
 11
258.5
 21
2027.675
 31
0.0
  0
LINE
  5
387
100
AcDbEntity
  8
図面枠・表題欄
  6
CONTINUOUS
 62
     2
100
AcDbLine
 10
273.6875
 20
2027.675
 30
0.0
 11
273.6875
 21
1997.3
 31
0.0
  0
LINE
  5
388
100
AcDbEntity
  8
図面枠・表題欄
  6
CONTINUOUS
 62
     2
100
AcDbLine
 10
294.95
 20
2033.75
 30
0.0
 11
258.5
 21
2033.75
 31
0.0
  0
LINE
  5
389
100
AcDbEntity
  8
図面枠・表題欄
  6
CONTINUOUS
 62
     2
100
AcDbLine
 10
279.7625
 20
1997.3
 30
0.0
 11
273.6875
 21
1997.3
 31
0.0
  0
ARC
  5
38A
100
AcDbEntity
  8
図面枠・表題欄
  6
CONTINUOUS
 62
     2
100
AcDbCircle
 10
318.098172
 20
2015.525
 30
0.0
 40
25.81875
100
AcDbArc
 50
28.072487
 51
44.900872
  0
CIRCLE
  5
38B
100
AcDbEntity
  8
図面枠・表題欄
  6
CONTINUOUS
 62
     2
100
AcDbCircle
 10
315.668172
 20
2015.525
 30
0.0
 40
24.3
  0
CIRCLE
  5
38C
100
AcDbEntity
  8
図面枠・表題欄
  6
CONTINUOUS
 62
     2
100
AcDbCircle
 10
315.668172
 20
2015.525
 30
0.0
 40
15.946875
  0
LINE
  5
38D
100
AcDbEntity
  8
図面枠・表題欄
  6
CONTINUOUS
 62
     2
100
AcDbLine
 10
342.914441
 20
2009.45
 30
0.0
 11
342.424053
 21
2007.900179
 31
0.0
  0
CIRCLE
  5
38E
100
AcDbEntity
  8
図面枠・表題欄
  6
CONTINUOUS
 62
     2
100
AcDbCircle
 10
315.668172
 20
2015.525
 30
0.0
 40
10.783125
  0
LINE
  5
38F
100
AcDbEntity
  8
図面枠・表題欄
  6
CONTINUOUS
 62
     7
100
AcDbLine
 10
253.5
 20
2015.0
 30
0.0
 11
-1043.5
 21
2015.0
 31
0.0
  0
LINE
  5
390
100
AcDbEntity
  8
図面枠・表題欄
  6
CONTINUOUS
 62
     7
100
AcDbLine
 10
-1043.5
 20
2015.0
 30
0.0
 11
-1043.5
 21
67.5
 31
0.0
  0
LINE
  5
391
100
AcDbEntity
  8
図面枠・表題欄
  6
CONTINUOUS
 62
     7
100
AcDbLine
 10
1745.0
 20
2015.0
 30
0.0
 11
458.0
 21
2015.0
 31
0.0
  0
LINE
  5
392
100
AcDbEntity
  8
図面枠・表題欄
  6
CONTINUOUS
 62
     7
100
AcDbLine
 10
1745.0
 20
67.5
 30
0.0
 11
1745.0
 21
2015.0
 31
0.0
  0
LINE
  5
393
100
AcDbEntity
  8
図面枠・表題欄
  6
CONTINUOUS
 62
     7
100
AcDbLine
 10
-1043.5
 20
67.5
 30
0.0
 11
1745.0
 21
67.5
 31
0.0
  0
POLYLINE
  5
394
100
AcDbEntity
  8
図面枠・表題欄
  6
CONTINUOUS
 62
     4
100
AcDb2dPolyline
 66
     1
 10
0.0
 20
0.0
 30
0.0
 70
   128
  0
VERTEX
  5
395
100
AcDbEntity
  8
図面枠・表題欄
  6
CONTINUOUS
 62
     4
100
AcDbVertex
100
AcDb2dVertex
 10
-1043.5
 20
1915.0
 30
0.0
  0
VERTEX
  5
396
100
AcDbEntity
  8
図面枠・表題欄
  6
CONTINUOUS
 62
     4
100
AcDbVertex
100
AcDb2dVertex
 10
-893.5
 20
1915.0
 30
0.0
  0
VERTEX
  5
397
100
AcDbEntity
  8
図面枠・表題欄
  6
CONTINUOUS
 62
     4
100
AcDbVertex
100
AcDb2dVertex
 10
-893.5
 20
1865.0
 30
0.0
  0
VERTEX
  5
398
100
AcDbEntity
  8
図面枠・表題欄
  6
CONTINUOUS
 62
     4
100
AcDbVertex
100
AcDb2dVertex
 10
-1043.5
 20
1865.0
 30
0.0
  0
VERTEX
  5
399
100
AcDbEntity
  8
図面枠・表題欄
  6
CONTINUOUS
 62
     4
100
AcDbVertex
100
AcDb2dVertex
 10
-1043.5
 20
1915.0
 30
0.0
  0
SEQEND
  5
39A
100
AcDbEntity
  8
図面枠・表題欄
  6
CONTINUOUS
 62
     4
  0
TEXT
  5
39B
100
AcDbEntity
  8
図面枠・表題欄
  6
CONTINUOUS
 62
     7
100
AcDbText
 10
-1021.0
 20
1872.5
 30
0.0
 40
26.25
  1
３２Ａ
  7
EXCADTTF1
 72
     5
 11
-916.0
 21
1872.5
 31
0.0
100
AcDbText
  0
LINE
  5
39C
100
AcDbEntity
  8
図面枠・表題欄
  6
CONTINUOUS
 62
     7
100
AcDbLine
 10
-1043.5
 20
1565.0
 30
0.0
 11
1745.0
 21
1565.0
 31
0.0
  0
LINE
  5
39D
100
AcDbEntity
  8
図面枠・表題欄
  6
CONTINUOUS
 62
     7
100
AcDbLine
 10
-485.8
 20
1565.0
 30
0.0
 11
-485.8
 21
1915.0
 31
0.0
  0
LINE
  5
39E
100
AcDbEntity
  8
図面枠・表題欄
  6
CONTINUOUS
 62
     7
100
AcDbLine
 10
71.9
 20
1565.0
 30
0.0
 11
71.9
 21
1915.0
 31
0.0
  0
LINE
  5
39F
100
AcDbEntity
  8
図面枠・表題欄
  6
CONTINUOUS
 62
     7
100
AcDbLine
 10
629.6
 20
1565.0
 30
0.0
 11
629.6
 21
1915.0
 31
0.0
  0
LINE
  5
3A0
100
AcDbEntity
  8
図面枠・表題欄
  6
CONTINUOUS
 62
     7
100
AcDbLine
 10
1187.3
 20
1565.0
 30
0.0
 11
1187.3
 21
1915.0
 31
0.0
  0
LINE
  5
3A1
100
AcDbEntity
  8
図面枠・表題欄
  6
EXLTYPE1
 62
     1
100
AcDbLine
 10
-764.65
 20
1915.0
 30
0.0
 11
-764.65
 21
1565.0
 31
0.0
  0
LINE
  5
3A2
100
AcDbEntity
  8
図面枠・表題欄
  6
EXLTYPE1
 62
     1
100
AcDbLine
 10
-206.95
 20
1915.0
 30
0.0
 11
-206.95
 21
1565.0
 31
0.0
  0
LINE
  5
3A3
100
AcDbEntity
  8
図面枠・表題欄
  6
EXLTYPE1
 62
     1
100
AcDbLine
 10
350.75
 20
1915.0
 30
0.0
 11
350.75
 21
1565.0
 31
0.0
  0
LINE
  5
3A4
100
AcDbEntity
  8
図面枠・表題欄
  6
EXLTYPE1
 62
     1
100
AcDbLine
 10
908.45
 20
1915.0
 30
0.0
 11
908.45
 21
1565.0
 31
0.0
  0
LINE
  5
3A5
100
AcDbEntity
  8
図面枠・表題欄
  6
EXLTYPE1
 62
     1
100
AcDbLine
 10
1466.15
 20
1915.0
 30
0.0
 11
1466.15
 21
1565.0
 31
0.0
  0
POLYLINE
  5
3A6
100
AcDbEntity
  8
図面枠・表題欄
  6
CONTINUOUS
 62
     4
100
AcDb2dPolyline
 66
     1
 10
0.0
 20
0.0
 30
0.0
 70
   128
  0
VERTEX
  5
3A7
100
AcDbEntity
  8
図面枠・表題欄
  6
CONTINUOUS
 62
     4
100
AcDbVertex
100
AcDb2dVertex
 10
-485.8
 20
1915.0
 30
0.0
  0
VERTEX
  5
3A8
100
AcDbEntity
  8
図面枠・表題欄
  6
CONTINUOUS
 62
     4
100
AcDbVertex
100
AcDb2dVertex
 10
-335.8
 20
1915.0
 30
0.0
  0
VERTEX
  5
3A9
100
AcDbEntity
  8
図面枠・表題欄
  6
CONTINUOUS
 62
     4
100
AcDbVertex
100
AcDb2dVertex
 10
-335.8
 20
1865.0
 30
0.0
  0
VERTEX
  5
3AA
100
AcDbEntity
  8
図面枠・表題欄
  6
CONTINUOUS
 62
     4
100
AcDbVertex
100
AcDb2dVertex
 10
-485.8
 20
1865.0
 30
0.0
  0
VERTEX
  5
3AB
100
AcDbEntity
  8
図面枠・表題欄
  6
CONTINUOUS
 62
     4
100
AcDbVertex
100
AcDb2dVertex
 10
-485.8
 20
1915.0
 30
0.0
  0
SEQEND
  5
3AC
100
AcDbEntity
  8
図面枠・表題欄
  6
CONTINUOUS
 62
     4
  0
POLYLINE
  5
3AD
100
AcDbEntity
  8
図面枠・表題欄
  6
CONTINUOUS
 62
     4
100
AcDb2dPolyline
 66
     1
 10
0.0
 20
0.0
 30
0.0
 70
   128
  0
VERTEX
  5
3AE
100
AcDbEntity
  8
図面枠・表題欄
  6
CONTINUOUS
 62
     4
100
AcDbVertex
100
AcDb2dVertex
 10
71.9
 20
1915.0
 30
0.0
  0
VERTEX
  5
3AF
100
AcDbEntity
  8
図面枠・表題欄
  6
CONTINUOUS
 62
     4
100
AcDbVertex
100
AcDb2dVertex
 10
221.9
 20
1915.0
 30
0.0
  0
VERTEX
  5
3B0
100
AcDbEntity
  8
図面枠・表題欄
  6
CONTINUOUS
 62
     4
100
AcDbVertex
100
AcDb2dVertex
 10
221.9
 20
1865.0
 30
0.0
  0
VERTEX
  5
3B1
100
AcDbEntity
  8
図面枠・表題欄
  6
CONTINUOUS
 62
     4
100
AcDbVertex
100
AcDb2dVertex
 10
71.9
 20
1865.0
 30
0.0
  0
VERTEX
  5
3B2
100
AcDbEntity
  8
図面枠・表題欄
  6
CONTINUOUS
 62
     4
100
AcDbVertex
100
AcDb2dVertex
 10
71.9
 20
1915.0
 30
0.0
  0
SEQEND
  5
3B3
100
AcDbEntity
  8
図面枠・表題欄
  6
CONTINUOUS
 62
     4
  0
POLYLINE
  5
3B4
100
AcDbEntity
  8
図面枠・表題欄
  6
CONTINUOUS
 62
     4
100
AcDb2dPolyline
 66
     1
 10
0.0
 20
0.0
 30
0.0
 70
   128
  0
VERTEX
  5
3B5
100
AcDbEntity
  8
図面枠・表題欄
  6
CONTINUOUS
 62
     4
100
AcDbVertex
100
AcDb2dVertex
 10
629.6
 20
1915.0
 30
0.0
  0
VERTEX
  5
3B6
100
AcDbEntity
  8
図面枠・表題欄
  6
CONTINUOUS
 62
     4
100
AcDbVertex
100
AcDb2dVertex
 10
779.6
 20
1915.0
 30
0.0
  0
VERTEX
  5
3B7
100
AcDbEntity
  8
図面枠・表題欄
  6
CONTINUOUS
 62
     4
100
AcDbVertex
100
AcDb2dVertex
 10
779.6
 20
1865.0
 30
0.0
  0
VERTEX
  5
3B8
100
AcDbEntity
  8
図面枠・表題欄
  6
CONTINUOUS
 62
     4
100
AcDbVertex
100
AcDb2dVertex
 10
629.6
 20
1865.0
 30
0.0
  0
VERTEX
  5
3B9
100
AcDbEntity
  8
図面枠・表題欄
  6
CONTINUOUS
 62
     4
100
AcDbVertex
100
AcDb2dVertex
 10
629.6
 20
1915.0
 30
0.0
  0
SEQEND
  5
3BA
100
AcDbEntity
  8
図面枠・表題欄
  6
CONTINUOUS
 62
     4
  0
POLYLINE
  5
3BB
100
AcDbEntity
  8
図面枠・表題欄
  6
CONTINUOUS
 62
     4
100
AcDb2dPolyline
 66
     1
 10
0.0
 20
0.0
 30
0.0
 70
   128
  0
VERTEX
  5
3BC
100
AcDbEntity
  8
図面枠・表題欄
  6
CONTINUOUS
 62
     4
100
AcDbVertex
100
AcDb2dVertex
 10
1187.3
 20
1915.0
 30
0.0
  0
VERTEX
  5
3BD
100
AcDbEntity
  8
図面枠・表題欄
  6
CONTINUOUS
 62
     4
100
AcDbVertex
100
AcDb2dVertex
 10
1337.3
 20
1915.0
 30
0.0
  0
VERTEX
  5
3BE
100
AcDbEntity
  8
図面枠・表題欄
  6
CONTINUOUS
 62
     4
100
AcDbVertex
100
AcDb2dVertex
 10
1337.3
 20
1865.0
 30
0.0
  0
VERTEX
  5
3BF
100
AcDbEntity
  8
図面枠・表題欄
  6
CONTINUOUS
 62
     4
100
AcDbVertex
100
AcDb2dVertex
 10
1187.3
 20
1865.0
 30
0.0
  0
VERTEX
  5
3C0
100
AcDbEntity
  8
図面枠・表題欄
  6
CONTINUOUS
 62
     4
100
AcDbVertex
100
AcDb2dVertex
 10
1187.3
 20
1915.0
 30
0.0
  0
SEQEND
  5
3C1
100
AcDbEntity
  8
図面枠・表題欄
  6
CONTINUOUS
 62
     4
  0
TEXT
  5
3C2
100
AcDbEntity
  8
図面枠・表題欄
  6
CONTINUOUS
 62
     7
100
AcDbText
 10
-463.3
 20
1872.5
 30
0.0
 40
26.25
  1
４０Ａ
  7
EXCADTTF1
 72
     5
 11
-358.3
 21
1872.5
 31
0.0
100
AcDbText
  0
TEXT
  5
3C3
100
AcDbEntity
  8
図面枠・表題欄
  6
CONTINUOUS
 62
     7
100
AcDbText
 10
94.4
 20
1872.5
 30
0.0
 40
26.25
  1
５０Ａ
  7
EXCADTTF1
 72
     5
 11
199.4
 21
1872.5
 31
0.0
100
AcDbText
  0
TEXT
  5
3C4
100
AcDbEntity
  8
図面枠・表題欄
  6
CONTINUOUS
 62
     7
100
AcDbText
 10
652.1
 20
1872.5
 30
0.0
 40
26.25
  1
６５Ａ
  7
EXCADTTF1
 72
     5
 11
757.1
 21
1872.5
 31
0.0
100
AcDbText
  0
TEXT
  5
3C5
100
AcDbEntity
  8
図面枠・表題欄
  6
CONTINUOUS
 62
     7
100
AcDbText
 10
1209.8
 20
1872.5
 30
0.0
 40
26.25
  1
８０Ａ
  7
EXCADTTF1
 72
     5
 11
1314.8
 21
1872.5
 31
0.0
100
AcDbText
  0
LINE
  5
3C6
100
AcDbEntity
  8
図面枠・表題欄
  6
CONTINUOUS
 62
     7
100
AcDbLine
 10
-1043.5
 20
816.25
 30
0.0
 11
1745.0
 21
816.25
 31
0.0
  0
LINE
  5
3C7
100
AcDbEntity
  8
図面枠・表題欄
  6
CONTINUOUS
 62
     7
100
AcDbLine
 10
-114.0
 20
1565.0
 30
0.0
 11
-114.0
 21
67.5
 31
0.0
  0
LINE
  5
3C8
100
AcDbEntity
  8
図面枠・表題欄
  6
CONTINUOUS
 62
     7
100
AcDbLine
 10
815.5
 20
1565.0
 30
0.0
 11
815.5
 21
67.5
 31
0.0
  0
LINE
  5
3C9
100
AcDbEntity
  8
図面枠・表題欄
  6
EXLTYPE1
 62
     1
100
AcDbLine
 10
-578.75
 20
1565.0
 30
0.0
 11
-578.75
 21
67.5
 31
0.0
  0
LINE
  5
3CA
100
AcDbEntity
  8
図面枠・表題欄
  6
EXLTYPE1
 62
     1
100
AcDbLine
 10
350.75
 20
1565.0
 30
0.0
 11
350.75
 21
67.5
 31
0.0
  0
LINE
  5
3CB
100
AcDbEntity
  8
図面枠・表題欄
  6
EXLTYPE1
 62
     1
100
AcDbLine
 10
1280.25
 20
1565.0
 30
0.0
 11
1280.25
 21
67.5
 31
0.0
  0
POLYLINE
  5
3CC
100
AcDbEntity
  8
図面枠・表題欄
  6
CONTINUOUS
 62
     4
100
AcDb2dPolyline
 66
     1
 10
0.0
 20
0.0
 30
0.0
 70
   128
  0
VERTEX
  5
3CD
100
AcDbEntity
  8
図面枠・表題欄
  6
CONTINUOUS
 62
     4
100
AcDbVertex
100
AcDb2dVertex
 10
-1043.5
 20
1565.0
 30
0.0
  0
VERTEX
  5
3CE
100
AcDbEntity
  8
図面枠・表題欄
  6
CONTINUOUS
 62
     4
100
AcDbVertex
100
AcDb2dVertex
 10
-893.5
 20
1565.0
 30
0.0
  0
VERTEX
  5
3CF
100
AcDbEntity
  8
図面枠・表題欄
  6
CONTINUOUS
 62
     4
100
AcDbVertex
100
AcDb2dVertex
 10
-893.5
 20
1515.0
 30
0.0
  0
VERTEX
  5
3D0
100
AcDbEntity
  8
図面枠・表題欄
  6
CONTINUOUS
 62
     4
100
AcDbVertex
100
AcDb2dVertex
 10
-1043.5
 20
1515.0
 30
0.0
  0
VERTEX
  5
3D1
100
AcDbEntity
  8
図面枠・表題欄
  6
CONTINUOUS
 62
     4
100
AcDbVertex
100
AcDb2dVertex
 10
-1043.5
 20
1565.0
 30
0.0
  0
SEQEND
  5
3D2
100
AcDbEntity
  8
図面枠・表題欄
  6
CONTINUOUS
 62
     4
  0
TEXT
  5
3D3
100
AcDbEntity
  8
図面枠・表題欄
  6
CONTINUOUS
 62
     7
100
AcDbText
 10
-1038.5
 20
1522.5
 30
0.0
 40
26.25
  1
１００Ａ
  7
EXCADTTF1
 72
     5
 11
-898.5
 21
1522.5
 31
0.0
100
AcDbText
  0
POLYLINE
  5
3D4
100
AcDbEntity
  8
図面枠・表題欄
  6
CONTINUOUS
 62
     4
100
AcDb2dPolyline
 66
     1
 10
0.0
 20
0.0
 30
0.0
 70
   128
  0
VERTEX
  5
3D5
100
AcDbEntity
  8
図面枠・表題欄
  6
CONTINUOUS
 62
     4
100
AcDbVertex
100
AcDb2dVertex
 10
-114.0
 20
1565.0
 30
0.0
  0
VERTEX
  5
3D6
100
AcDbEntity
  8
図面枠・表題欄
  6
CONTINUOUS
 62
     4
100
AcDbVertex
100
AcDb2dVertex
 10
36.0
 20
1565.0
 30
0.0
  0
VERTEX
  5
3D7
100
AcDbEntity
  8
図面枠・表題欄
  6
CONTINUOUS
 62
     4
100
AcDbVertex
100
AcDb2dVertex
 10
36.0
 20
1515.0
 30
0.0
  0
VERTEX
  5
3D8
100
AcDbEntity
  8
図面枠・表題欄
  6
CONTINUOUS
 62
     4
100
AcDbVertex
100
AcDb2dVertex
 10
-114.0
 20
1515.0
 30
0.0
  0
VERTEX
  5
3D9
100
AcDbEntity
  8
図面枠・表題欄
  6
CONTINUOUS
 62
     4
100
AcDbVertex
100
AcDb2dVertex
 10
-114.0
 20
1565.0
 30
0.0
  0
SEQEND
  5
3DA
100
AcDbEntity
  8
図面枠・表題欄
  6
CONTINUOUS
 62
     4
  0
TEXT
  5
3DB
100
AcDbEntity
  8
図面枠・表題欄
  6
CONTINUOUS
 62
     7
100
AcDbText
 10
-109.0
 20
1522.5
 30
0.0
 40
26.25
  1
１２５Ａ
  7
EXCADTTF1
 72
     5
 11
31.0
 21
1522.5
 31
0.0
100
AcDbText
  0
POLYLINE
  5
3DC
100
AcDbEntity
  8
図面枠・表題欄
  6
CONTINUOUS
 62
     4
100
AcDb2dPolyline
 66
     1
 10
0.0
 20
0.0
 30
0.0
 70
   128
  0
VERTEX
  5
3DD
100
AcDbEntity
  8
図面枠・表題欄
  6
CONTINUOUS
 62
     4
100
AcDbVertex
100
AcDb2dVertex
 10
815.5
 20
1565.0
 30
0.0
  0
VERTEX
  5
3DE
100
AcDbEntity
  8
図面枠・表題欄
  6
CONTINUOUS
 62
     4
100
AcDbVertex
100
AcDb2dVertex
 10
965.5
 20
1565.0
 30
0.0
  0
VERTEX
  5
3DF
100
AcDbEntity
  8
図面枠・表題欄
  6
CONTINUOUS
 62
     4
100
AcDbVertex
100
AcDb2dVertex
 10
965.5
 20
1515.0
 30
0.0
  0
VERTEX
  5
3E0
100
AcDbEntity
  8
図面枠・表題欄
  6
CONTINUOUS
 62
     4
100
AcDbVertex
100
AcDb2dVertex
 10
815.5
 20
1515.0
 30
0.0
  0
VERTEX
  5
3E1
100
AcDbEntity
  8
図面枠・表題欄
  6
CONTINUOUS
 62
     4
100
AcDbVertex
100
AcDb2dVertex
 10
815.5
 20
1565.0
 30
0.0
  0
SEQEND
  5
3E2
100
AcDbEntity
  8
図面枠・表題欄
  6
CONTINUOUS
 62
     4
  0
TEXT
  5
3E3
100
AcDbEntity
  8
図面枠・表題欄
  6
CONTINUOUS
 62
     7
100
AcDbText
 10
820.5
 20
1522.5
 30
0.0
 40
26.25
  1
１５０Ａ
  7
EXCADTTF1
 72
     5
 11
960.5
 21
1522.5
 31
0.0
100
AcDbText
  0
POLYLINE
  5
3E4
100
AcDbEntity
  8
図面枠・表題欄
  6
CONTINUOUS
 62
     4
100
AcDb2dPolyline
 66
     1
 10
0.0
 20
0.0
 30
0.0
 70
   128
  0
VERTEX
  5
3E5
100
AcDbEntity
  8
図面枠・表題欄
  6
CONTINUOUS
 62
     4
100
AcDbVertex
100
AcDb2dVertex
 10
-1043.5
 20
816.25
 30
0.0
  0
VERTEX
  5
3E6
100
AcDbEntity
  8
図面枠・表題欄
  6
CONTINUOUS
 62
     4
100
AcDbVertex
100
AcDb2dVertex
 10
-893.5
 20
816.25
 30
0.0
  0
VERTEX
  5
3E7
100
AcDbEntity
  8
図面枠・表題欄
  6
CONTINUOUS
 62
     4
100
AcDbVertex
100
AcDb2dVertex
 10
-893.5
 20
766.25
 30
0.0
  0
VERTEX
  5
3E8
100
AcDbEntity
  8
図面枠・表題欄
  6
CONTINUOUS
 62
     4
100
AcDbVertex
100
AcDb2dVertex
 10
-1043.5
 20
766.25
 30
0.0
  0
VERTEX
  5
3E9
100
AcDbEntity
  8
図面枠・表題欄
  6
CONTINUOUS
 62
     4
100
AcDbVertex
100
AcDb2dVertex
 10
-1043.5
 20
816.25
 30
0.0
  0
SEQEND
  5
3EA
100
AcDbEntity
  8
図面枠・表題欄
  6
CONTINUOUS
 62
     4
  0
POLYLINE
  5
3EB
100
AcDbEntity
  8
図面枠・表題欄
  6
CONTINUOUS
 62
     4
100
AcDb2dPolyline
 66
     1
 10
0.0
 20
0.0
 30
0.0
 70
   128
  0
VERTEX
  5
3EC
100
AcDbEntity
  8
図面枠・表題欄
  6
CONTINUOUS
 62
     4
100
AcDbVertex
100
AcDb2dVertex
 10
-114.0
 20
816.25
 30
0.0
  0
VERTEX
  5
3ED
100
AcDbEntity
  8
図面枠・表題欄
  6
CONTINUOUS
 62
     4
100
AcDbVertex
100
AcDb2dVertex
 10
36.0
 20
816.25
 30
0.0
  0
VERTEX
  5
3EE
100
AcDbEntity
  8
図面枠・表題欄
  6
CONTINUOUS
 62
     4
100
AcDbVertex
100
AcDb2dVertex
 10
36.0
 20
766.25
 30
0.0
  0
VERTEX
  5
3EF
100
AcDbEntity
  8
図面枠・表題欄
  6
CONTINUOUS
 62
     4
100
AcDbVertex
100
AcDb2dVertex
 10
-114.0
 20
766.25
 30
0.0
  0
VERTEX
  5
3F0
100
AcDbEntity
  8
図面枠・表題欄
  6
CONTINUOUS
 62
     4
100
AcDbVertex
100
AcDb2dVertex
 10
-114.0
 20
816.25
 30
0.0
  0
SEQEND
  5
3F1
100
AcDbEntity
  8
図面枠・表題欄
  6
CONTINUOUS
 62
     4
  0
POLYLINE
  5
3F2
100
AcDbEntity
  8
図面枠・表題欄
  6
CONTINUOUS
 62
     4
100
AcDb2dPolyline
 66
     1
 10
0.0
 20
0.0
 30
0.0
 70
   128
  0
VERTEX
  5
3F3
100
AcDbEntity
  8
図面枠・表題欄
  6
CONTINUOUS
 62
     4
100
AcDbVertex
100
AcDb2dVertex
 10
815.5
 20
816.25
 30
0.0
  0
VERTEX
  5
3F4
100
AcDbEntity
  8
図面枠・表題欄
  6
CONTINUOUS
 62
     4
100
AcDbVertex
100
AcDb2dVertex
 10
965.5
 20
816.25
 30
0.0
  0
VERTEX
  5
3F5
100
AcDbEntity
  8
図面枠・表題欄
  6
CONTINUOUS
 62
     4
100
AcDbVertex
100
AcDb2dVertex
 10
965.5
 20
766.25
 30
0.0
  0
VERTEX
  5
3F6
100
AcDbEntity
  8
図面枠・表題欄
  6
CONTINUOUS
 62
     4
100
AcDbVertex
100
AcDb2dVertex
 10
815.5
 20
766.25
 30
0.0
  0
VERTEX
  5
3F7
100
AcDbEntity
  8
図面枠・表題欄
  6
CONTINUOUS
 62
     4
100
AcDbVertex
100
AcDb2dVertex
 10
815.5
 20
816.25
 30
0.0
  0
SEQEND
  5
3F8
100
AcDbEntity
  8
図面枠・表題欄
  6
CONTINUOUS
 62
     4
  0
TEXT
  5
3F9
100
AcDbEntity
  8
図面枠・表題欄
  6
CONTINUOUS
 62
     7
100
AcDbText
 10
-1038.5
 20
773.75
 30
0.0
 40
26.25
  1
２００Ａ
  7
EXCADTTF1
 72
     5
 11
-898.5
 21
773.75
 31
0.0
100
AcDbText
  0
TEXT
  5
3FA
100
AcDbEntity
  8
図面枠・表題欄
  6
CONTINUOUS
 62
     7
100
AcDbText
 10
-109.0
 20
773.75
 30
0.0
 40
26.25
  1
２５０Ａ
  7
EXCADTTF1
 72
     5
 11
31.0
 21
773.75
 31
0.0
100
AcDbText
  0
TEXT
  5
3FB
100
AcDbEntity
  8
図面枠・表題欄
  6
CONTINUOUS
 62
     7
100
AcDbText
 10
820.5
 20
773.75
 30
0.0
 40
26.25
  1
３００Ａ
  7
EXCADTTF1
 72
     5
 11
960.5
 21
773.75
 31
0.0
100
AcDbText
  0
TEXT
  5
3FC
100
AcDbEntity
  8
図面枠・表題欄
  6
CONTINUOUS
 62
     7
100
AcDbText
 10
1605.0
 20
1926.0
 30
0.0
 40
18.75
  1
Ｓ＝１／５
  7
EXCADTTF1
 72
     5
 11
1730.0
 21
1926.0
 31
0.0
100
AcDbText
  0
LINE
  5
3FD
100
AcDbEntity
  8
図面枠・表題欄
  6
EXLTYPE1
 62
     1
100
AcDbLine
 10
-1043.5
 20
1715.0
 30
0.0
 11
1745.0
 21
1715.0
 31
0.0
  0
LINE
  5
3FE
100
AcDbEntity
  8
図面枠・表題欄
  6
EXLTYPE1
 62
     1
100
AcDbLine
 10
-1043.5
 20
1190.625
 30
0.0
 11
1745.0
 21
1190.625
 31
0.0
  0
LINE
  5
3FF
100
AcDbEntity
  8
図面枠・表題欄
  6
EXLTYPE1
 62
     1
100
AcDbLine
 10
-1043.5
 20
441.875
 30
0.0
 11
1745.0
 21
441.875
 31
0.0
  0
ARC
  5
400
100
AcDbEntity
  8
図面枠・表題欄
  6
CONTINUOUS
 62
     3
100
AcDbCircle
 10
1374.75
 20
619.85413
 30
0.0
 40
2.0
100
AcDbArc
 50
270.0
 51
0.0
  0
LINE
  5
401
100
AcDbEntity
  8
図面枠・表題欄
  6
CONTINUOUS
 62
     3
100
AcDbLine
 10
1371.25
 20
614.35413
 30
0.0
 11
1371.25
 21
611.875
 31
0.0
  0
ARC
  5
402
100
AcDbEntity
  8
図面枠・表題欄
  6
CONTINUOUS
 62
     3
100
AcDbCircle
 10
1377.25
 20
611.875
 30
0.0
 40
6.0
100
AcDbArc
 50
180.0
 51
265.219808
  0
ARC
  5
403
100
AcDbEntity
  8
図面枠・表題欄
  6
CONTINUOUS
 62
     3
100
AcDbCircle
 10
1374.75
 20
614.35413
 30
0.0
 40
3.5
100
AcDbArc
 50
90.0
 51
180.0
  0
ARC
  5
404
100
AcDbEntity
  8
図面枠・表題欄
  6
CONTINUOUS
 62
     3
100
AcDbCircle
 10
1374.75
 20
263.89587
 30
0.0
 40
2.0
100
AcDbArc
 50
0.0
 51
90.0
  0
LINE
  5
405
100
AcDbEntity
  8
図面枠・表題欄
  6
CONTINUOUS
 62
     3
100
AcDbLine
 10
1371.25
 20
269.39587
 30
0.0
 11
1371.25
 21
271.875
 31
0.0
  0
ARC
  5
406
100
AcDbEntity
  8
図面枠・表題欄
  6
CONTINUOUS
 62
     3
100
AcDbCircle
 10
1377.25
 20
271.875
 30
0.0
 40
6.0
100
AcDbArc
 50
94.780192
 51
180.0
  0
ARC
  5
407
100
AcDbEntity
  8
図面枠・表題欄
  6
CONTINUOUS
 62
     3
100
AcDbCircle
 10
1374.75
 20
269.39587
 30
0.0
 40
3.5
100
AcDbArc
 50
180.0
 51
270.0
  0
ARC
  5
408
100
AcDbEntity
  8
図面枠・表題欄
  6
CONTINUOUS
 62
     3
100
AcDbCircle
 10
1185.75
 20
619.85413
 30
0.0
 40
2.0
100
AcDbArc
 50
180.0
 51
270.0
  0
LINE
  5
409
100
AcDbEntity
  8
図面枠・表題欄
  6
CONTINUOUS
 62
     3
100
AcDbLine
 10
1189.25
 20
614.35413
 30
0.0
 11
1189.25
 21
611.875
 31
0.0
  0
ARC
  5
40A
100
AcDbEntity
  8
図面枠・表題欄
  6
CONTINUOUS
 62
     3
100
AcDbCircle
 10
1183.25
 20
611.875
 30
0.0
 40
6.0
100
AcDbArc
 50
274.780192
 51
0.0
  0
ARC
  5
40B
100
AcDbEntity
  8
図面枠・表題欄
  6
CONTINUOUS
 62
     3
100
AcDbCircle
 10
1185.75
 20
614.35413
 30
0.0
 40
3.5
100
AcDbArc
 50
0.0
 51
90.0
  0
ARC
  5
40C
100
AcDbEntity
  8
図面枠・表題欄
  6
CONTINUOUS
 62
     3
100
AcDbCircle
 10
1185.75
 20
263.89587
 30
0.0
 40
2.0
100
AcDbArc
 50
90.0
 51
180.0
  0
LINE
  5
40D
100
AcDbEntity
  8
図面枠・表題欄
  6
CONTINUOUS
 62
     3
100
AcDbLine
 10
1189.25
 20
269.39587
 30
0.0
 11
1189.25
 21
271.875
 31
0.0
  0
ARC
  5
40E
100
AcDbEntity
  8
図面枠・表題欄
  6
CONTINUOUS
 62
     3
100
AcDbCircle
 10
1183.25
 20
271.875
 30
0.0
 40
6.0
100
AcDbArc
 50
0.0
 51
85.219808
  0
ARC
  5
40F
100
AcDbEntity
  8
図面枠・表題欄
  6
CONTINUOUS
 62
     3
100
AcDbCircle
 10
1185.75
 20
269.39587
 30
0.0
 40
3.5
100
AcDbArc
 50
270.0
 51
0.0
  0
LINE
  5
410
100
AcDbEntity
  8
図面枠・表題欄
  6
CONTINUOUS
 62
     3
100
AcDbLine
 10
1376.75
 20
661.875
 30
0.0
 11
1383.25
 21
664.375
 31
0.0
  0
ARC
  5
411
100
AcDbEntity
  8
図面枠・表題欄
  6
CONTINUOUS
 62
     3
100
AcDbCircle
 10
1399.25
 20
663.375
 30
0.0
 40
1.0
100
AcDbArc
 50
0.0
 51
90.0
  0
LINE
  5
412
100
AcDbEntity
  8
図面枠・表題欄
  6
CONTINUOUS
 62
     3
100
AcDbLine
 10
1183.75
 20
661.875
 30
0.0
 11
1177.25
 21
664.375
 31
0.0
  0
ARC
  5
413
100
AcDbEntity
  8
図面枠・表題欄
  6
CONTINUOUS
 62
     3
100
AcDbCircle
 10
1161.25
 20
663.375
 30
0.0
 40
1.0
100
AcDbArc
 50
90.0
 51
180.0
  0
LINE
  5
414
100
AcDbEntity
  8
図面枠・表題欄
  6
CONTINUOUS
 62
     3
100
AcDbLine
 10
1183.75
 20
221.875
 30
0.0
 11
1177.25
 21
219.375
 31
0.0
  0
ARC
  5
415
100
AcDbEntity
  8
図面枠・表題欄
  6
CONTINUOUS
 62
     3
100
AcDbCircle
 10
1161.25
 20
220.375
 30
0.0
 40
1.0
100
AcDbArc
 50
180.0
 51
270.0
  0
LINE
  5
416
100
AcDbEntity
  8
図面枠・表題欄
  6
CONTINUOUS
 62
     3
100
AcDbLine
 10
1376.75
 20
221.875
 30
0.0
 11
1383.25
 21
219.375
 31
0.0
  0
ARC
  5
417
100
AcDbEntity
  8
図面枠・表題欄
  6
CONTINUOUS
 62
     3
100
AcDbCircle
 10
1399.25
 20
220.375
 30
0.0
 40
1.0
100
AcDbArc
 50
270.0
 51
0.0
  0
ARC
  5
418
100
AcDbEntity
  8
外形図
  6
CONTINUOUS
 62
     3
100
AcDbCircle
 10
-824.22152
 20
1746.136155
 30
0.0
 40
3.0
100
AcDbArc
 50
121.746366
 51
167.464043
  0
ARC
  5
419
100
AcDbEntity
  8
外形図
  6
CONTINUOUS
 62
     3
100
AcDbCircle
 10
-819.102639
 20
1748.313174
 30
0.0
 40
7.348473
100
AcDbArc
 50
114.499992
 51
155.698839
  0
ARC
  5
41A
100
AcDbEntity
  8
外形図
  6
CONTINUOUS
 62
     3
100
AcDbCircle
 10
-710.197361
 20
1748.313174
 30
0.0
 40
7.348473
100
AcDbArc
 50
24.301161
 51
65.500008
  0
ARC
  5
41B
100
AcDbEntity
  8
外形図
  6
CONTINUOUS
 62
     3
100
AcDbCircle
 10
-705.07848
 20
1746.136155
 30
0.0
 40
3.0
100
AcDbArc
 50
12.535957
 51
58.253634
  0
ARC
  5
41C
100
AcDbEntity
  8
外形図
  6
CONTINUOUS
 62
     3
100
AcDbCircle
 10
-824.22152
 20
1683.863845
 30
0.0
 40
3.0
100
AcDbArc
 50
192.535957
 51
238.253634
  0
ARC
  5
41D
100
AcDbEntity
  8
外形図
  6
CONTINUOUS
 62
     3
100
AcDbCircle
 10
-819.102639
 20
1681.686826
 30
0.0
 40
7.348473
100
AcDbArc
 50
204.301161
 51
245.500008
  0
ARC
  5
41E
100
AcDbEntity
  8
外形図
  6
CONTINUOUS
 62
     3
100
AcDbCircle
 10
-710.197361
 20
1681.686826
 30
0.0
 40
7.348473
100
AcDbArc
 50
294.499992
 51
335.698839
  0
ARC
  5
41F
100
AcDbEntity
  8
外形図
  6
CONTINUOUS
 62
     3
100
AcDbCircle
 10
-705.07848
 20
1683.863845
 30
0.0
 40
3.0
100
AcDbArc
 50
301.746366
 51
347.464043
  0
LINE
  5
420
100
AcDbEntity
  8
外形図
  6
CONTINUOUS
 62
     3
100
AcDbLine
 10
-827.15
 20
1683.212688
 30
0.0
 11
-827.15
 21
1746.787312
 31
0.0
  0
LINE
  5
421
100
AcDbEntity
  8
外形図
  6
CONTINUOUS
 62
     3
100
AcDbLine
 10
-825.8
 20
1678.662688
 30
0.0
 11
-825.8
 21
1751.337312
 31
0.0
  0
LINE
  5
422
100
AcDbEntity
  8
外形図
  6
CONTINUOUS
 62
     3
100
AcDbLine
 10
-703.5
 20
1678.662688
 30
0.0
 11
-703.5
 21
1751.337312
 31
0.0
  0
LINE
  5
423
100
AcDbEntity
  8
外形図
  6
CONTINUOUS
 62
     3
100
AcDbLine
 10
-702.15
 20
1683.212688
 30
0.0
 11
-702.15
 21
1746.787312
 31
0.0
  0
ARC
  5
424
100
AcDbEntity
  8
外形図
  6
CONTINUOUS
 62
     3
100
AcDbCircle
 10
-792.475348
 20
1751.0
 30
0.0
 40
7.5
100
AcDbArc
 50
270.0
 51
307.701381
  0
ARC
  5
425
100
AcDbEntity
  8
外形図
  6
CONTINUOUS
 62
     3
100
AcDbCircle
 10
-736.824652
 20
1751.0
 30
0.0
 40
7.5
100
AcDbArc
 50
232.298619
 51
270.0
  0
ARC
  5
426
100
AcDbEntity
  8
外形図
  6
CONTINUOUS
 62
     3
100
AcDbCircle
 10
-764.65
 20
1715.0
 30
0.0
 40
38.0
100
AcDbArc
 50
52.298619
 51
127.701381
  0
ARC
  5
427
100
AcDbEntity
  8
外形図
  6
CONTINUOUS
 62
     3
100
AcDbCircle
 10
-792.475348
 20
1679.0
 30
0.0
 40
7.5
100
AcDbArc
 50
52.298619
 51
90.0
  0
ARC
  5
428
100
AcDbEntity
  8
外形図
  6
CONTINUOUS
 62
     3
100
AcDbCircle
 10
-736.824652
 20
1679.0
 30
0.0
 40
7.5
100
AcDbArc
 50
90.0
 51
127.701381
  0
ARC
  5
429
100
AcDbEntity
  8
外形図
  6
CONTINUOUS
 62
     3
100
AcDbCircle
 10
-764.65
 20
1715.0
 30
0.0
 40
38.0
100
AcDbArc
 50
232.298619
 51
307.701381
  0
LINE
  5
42A
100
AcDbEntity
  8
外形図
  6
CONTINUOUS
 62
     3
100
AcDbLine
 10
-787.888752
 20
1745.065934
 30
0.0
 11
-787.888752
 21
1684.934066
 31
0.0
  0
LINE
  5
42B
100
AcDbEntity
  8
外形図
  6
CONTINUOUS
 62
     3
100
AcDbLine
 10
-792.475348
 20
1743.5
 30
0.0
 11
-792.475348
 21
1686.5
 31
0.0
  0
LINE
  5
42C
100
AcDbEntity
  8
外形図
  6
CONTINUOUS
 62
     3
100
AcDbLine
 10
-741.411248
 20
1745.065934
 30
0.0
 11
-741.411248
 21
1684.934066
 31
0.0
  0
LINE
  5
42D
100
AcDbEntity
  8
外形図
  6
CONTINUOUS
 62
     3
100
AcDbLine
 10
-736.824652
 20
1743.5
 30
0.0
 11
-736.824652
 21
1686.5
 31
0.0
  0
ARC
  5
42E
100
AcDbEntity
  8
外形図
  6
CONTINUOUS
 62
     3
100
AcDbCircle
 10
-819.15
 20
1779.5
 30
0.0
 40
3.0
100
AcDbArc
 50
90.0
 51
180.0
  0
ARC
  5
42F
100
AcDbEntity
  8
外形図
  6
CONTINUOUS
 62
     3
100
AcDbCircle
 10
-710.15
 20
1779.5
 30
0.0
 40
3.0
100
AcDbArc
 50
0.0
 51
90.0
  0
ARC
  5
430
100
AcDbEntity
  8
外形図
  6
CONTINUOUS
 62
     3
100
AcDbCircle
 10
-819.15
 20
1650.5
 30
0.0
 40
3.0
100
AcDbArc
 50
180.0
 51
270.0
  0
ARC
  5
431
100
AcDbEntity
  8
外形図
  6
CONTINUOUS
 62
     3
100
AcDbCircle
 10
-710.15
 20
1650.5
 30
0.0
 40
3.0
100
AcDbArc
 50
270.0
 51
0.0
  0
LINE
  5
432
100
AcDbEntity
  8
外形図
  6
CONTINUOUS
 62
     3
100
AcDbLine
 10
-822.15
 20
1779.5
 30
0.0
 11
-822.15
 21
1650.5
 31
0.0
  0
LINE
  5
433
100
AcDbEntity
  8
外形図
  6
CONTINUOUS
 62
     3
100
AcDbLine
 10
-707.15
 20
1779.5
 30
0.0
 11
-707.15
 21
1650.5
 31
0.0
  0
ARC
  5
434
100
AcDbEntity
  8
外形図
  6
CONTINUOUS
 62
     3
100
AcDbCircle
 10
-261.45
 20
1782.0
 30
0.0
 40
3.0
100
AcDbArc
 50
90.0
 51
180.0
  0
ARC
  5
435
100
AcDbEntity
  8
外形図
  6
CONTINUOUS
 62
     3
100
AcDbCircle
 10
-152.45
 20
1782.0
 30
0.0
 40
3.0
100
AcDbArc
 50
0.0
 51
90.0
  0
ARC
  5
436
100
AcDbEntity
  8
外形図
  6
CONTINUOUS
 62
     3
100
AcDbCircle
 10
-266.52152
 20
1746.136155
 30
0.0
 40
3.0
100
AcDbArc
 50
121.746366
 51
167.464043
  0
ARC
  5
437
100
AcDbEntity
  8
外形図
  6
CONTINUOUS
 62
     3
100
AcDbCircle
 10
-261.402639
 20
1748.313174
 30
0.0
 40
7.348473
100
AcDbArc
 50
114.499992
 51
155.698839
  0
ARC
  5
438
100
AcDbEntity
  8
外形図
  6
CONTINUOUS
 62
     3
100
AcDbCircle
 10
-152.497361
 20
1748.313174
 30
0.0
 40
7.348473
100
AcDbArc
 50
24.301161
 51
65.500008
  0
ARC
  5
439
100
AcDbEntity
  8
外形図
  6
CONTINUOUS
 62
     3
100
AcDbCircle
 10
-147.37848
 20
1746.136155
 30
0.0
 40
3.0
100
AcDbArc
 50
12.535957
 51
58.253634
  0
ARC
  5
43A
100
AcDbEntity
  8
外形図
  6
CONTINUOUS
 62
     3
100
AcDbCircle
 10
-261.45
 20
1648.0
 30
0.0
 40
3.0
100
AcDbArc
 50
180.0
 51
270.0
  0
ARC
  5
43B
100
AcDbEntity
  8
外形図
  6
CONTINUOUS
 62
     3
100
AcDbCircle
 10
-152.45
 20
1648.0
 30
0.0
 40
3.0
100
AcDbArc
 50
270.0
 51
0.0
  0
ARC
  5
43C
100
AcDbEntity
  8
外形図
  6
CONTINUOUS
 62
     3
100
AcDbCircle
 10
-266.52152
 20
1683.863845
 30
0.0
 40
3.0
100
AcDbArc
 50
192.535957
 51
238.253634
  0
ARC
  5
43D
100
AcDbEntity
  8
外形図
  6
CONTINUOUS
 62
     3
100
AcDbCircle
 10
-261.402639
 20
1681.686826
 30
0.0
 40
7.348473
100
AcDbArc
 50
204.301161
 51
245.500008
  0
ARC
  5
43E
100
AcDbEntity
  8
外形図
  6
CONTINUOUS
 62
     3
100
AcDbCircle
 10
-152.497361
 20
1681.686826
 30
0.0
 40
7.348473
100
AcDbArc
 50
294.499992
 51
335.698839
  0
ARC
  5
43F
100
AcDbEntity
  8
外形図
  6
CONTINUOUS
 62
     3
100
AcDbCircle
 10
-147.37848
 20
1683.863845
 30
0.0
 40
3.0
100
AcDbArc
 50
301.746366
 51
347.464043
  0
LINE
  5
440
100
AcDbEntity
  8
外形図
  6
CONTINUOUS
 62
     3
100
AcDbLine
 10
-269.45
 20
1683.212688
 30
0.0
 11
-269.45
 21
1746.787312
 31
0.0
  0
LINE
  5
441
100
AcDbEntity
  8
外形図
  6
CONTINUOUS
 62
     3
100
AcDbLine
 10
-268.1
 20
1678.662688
 30
0.0
 11
-268.1
 21
1751.337312
 31
0.0
  0
LINE
  5
442
100
AcDbEntity
  8
外形図
  6
CONTINUOUS
 62
     3
100
AcDbLine
 10
-264.45
 20
1782.0
 30
0.0
 11
-264.45
 21
1648.0
 31
0.0
  0
LINE
  5
443
100
AcDbEntity
  8
外形図
  6
CONTINUOUS
 62
     3
100
AcDbLine
 10
-149.45
 20
1782.0
 30
0.0
 11
-149.45
 21
1648.0
 31
0.0
  0
LINE
  5
444
100
AcDbEntity
  8
外形図
  6
CONTINUOUS
 62
     3
100
AcDbLine
 10
-145.8
 20
1678.662688
 30
0.0
 11
-145.8
 21
1751.337312
 31
0.0
  0
LINE
  5
445
100
AcDbEntity
  8
外形図
  6
CONTINUOUS
 62
     3
100
AcDbLine
 10
-144.45
 20
1683.212688
 30
0.0
 11
-144.45
 21
1746.787312
 31
0.0
  0
ARC
  5
446
100
AcDbEntity
  8
外形図
  6
CONTINUOUS
 62
     3
100
AcDbCircle
 10
-234.775348
 20
1751.0
 30
0.0
 40
7.5
100
AcDbArc
 50
270.0
 51
307.701381
  0
ARC
  5
447
100
AcDbEntity
  8
外形図
  6
CONTINUOUS
 62
     3
100
AcDbCircle
 10
-179.124652
 20
1751.0
 30
0.0
 40
7.5
100
AcDbArc
 50
232.298619
 51
270.0
  0
ARC
  5
448
100
AcDbEntity
  8
外形図
  6
CONTINUOUS
 62
     3
100
AcDbCircle
 10
-206.95
 20
1715.0
 30
0.0
 40
38.0
100
AcDbArc
 50
52.298619
 51
127.701381
  0
ARC
  5
449
100
AcDbEntity
  8
外形図
  6
CONTINUOUS
 62
     3
100
AcDbCircle
 10
-234.775348
 20
1679.0
 30
0.0
 40
7.5
100
AcDbArc
 50
52.298619
 51
90.0
  0
ARC
  5
44A
100
AcDbEntity
  8
外形図
  6
CONTINUOUS
 62
     3
100
AcDbCircle
 10
-179.124652
 20
1679.0
 30
0.0
 40
7.5
100
AcDbArc
 50
90.0
 51
127.701381
  0
ARC
  5
44B
100
AcDbEntity
  8
外形図
  6
CONTINUOUS
 62
     3
100
AcDbCircle
 10
-206.95
 20
1715.0
 30
0.0
 40
38.0
100
AcDbArc
 50
232.298619
 51
307.701381
  0
LINE
  5
44C
100
AcDbEntity
  8
外形図
  6
CONTINUOUS
 62
     3
100
AcDbLine
 10
-230.188752
 20
1745.065934
 30
0.0
 11
-230.188752
 21
1684.934066
 31
0.0
  0
LINE
  5
44D
100
AcDbEntity
  8
外形図
  6
CONTINUOUS
 62
     3
100
AcDbLine
 10
-234.775348
 20
1743.5
 30
0.0
 11
-234.775348
 21
1686.5
 31
0.0
  0
LINE
  5
44E
100
AcDbEntity
  8
外形図
  6
CONTINUOUS
 62
     3
100
AcDbLine
 10
-183.711248
 20
1745.065934
 30
0.0
 11
-183.711248
 21
1684.934066
 31
0.0
  0
LINE
  5
44F
100
AcDbEntity
  8
外形図
  6
CONTINUOUS
 62
     3
100
AcDbLine
 10
-179.124652
 20
1743.5
 30
0.0
 11
-179.124652
 21
1686.5
 31
0.0
  0
ARC
  5
450
100
AcDbEntity
  8
外形図
  6
CONTINUOUS
 62
     3
100
AcDbCircle
 10
296.25
 20
1789.5
 30
0.0
 40
3.0
100
AcDbArc
 50
90.0
 51
180.0
  0
ARC
  5
451
100
AcDbEntity
  8
外形図
  6
CONTINUOUS
 62
     3
100
AcDbCircle
 10
405.25
 20
1789.5
 30
0.0
 40
3.0
100
AcDbArc
 50
0.0
 51
90.0
  0
ARC
  5
452
100
AcDbEntity
  8
外形図
  6
CONTINUOUS
 62
     3
100
AcDbCircle
 10
296.25
 20
1640.5
 30
0.0
 40
3.0
100
AcDbArc
 50
180.0
 51
270.0
  0
ARC
  5
453
100
AcDbEntity
  8
外形図
  6
CONTINUOUS
 62
     3
100
AcDbCircle
 10
405.25
 20
1640.5
 30
0.0
 40
3.0
100
AcDbArc
 50
270.0
 51
0.0
  0
ARC
  5
454
100
AcDbEntity
  8
外形図
  6
CONTINUOUS
 62
     3
100
AcDbCircle
 10
350.75
 20
1715.0
 30
0.0
 40
48.0
100
AcDbArc
 50
55.167001
 51
124.832999
  0
ARC
  5
455
100
AcDbEntity
  8
外形図
  6
CONTINUOUS
 62
     3
100
AcDbCircle
 10
350.75
 20
1715.0
 30
0.0
 40
48.0
100
AcDbArc
 50
235.167001
 51
304.832999
  0
LINE
  5
456
100
AcDbEntity
  8
外形図
  6
CONTINUOUS
 62
     3
100
AcDbLine
 10
323.333102
 20
1754.399307
 30
0.0
 11
323.333102
 21
1675.600693
 31
0.0
  0
LINE
  5
457
100
AcDbEntity
  8
外形図
  6
CONTINUOUS
 62
     3
100
AcDbLine
 10
316.333102
 20
1751.170334
 30
0.0
 11
316.333102
 21
1678.829666
 31
0.0
  0
LINE
  5
458
100
AcDbEntity
  8
外形図
  6
CONTINUOUS
 62
     3
100
AcDbLine
 10
385.166898
 20
1751.170334
 30
0.0
 11
385.166898
 21
1678.829666
 31
0.0
  0
LINE
  5
459
100
AcDbEntity
  8
外形図
  6
CONTINUOUS
 62
     3
100
AcDbLine
 10
378.166898
 20
1754.399307
 30
0.0
 11
378.166898
 21
1675.600693
 31
0.0
  0
ARC
  5
45A
100
AcDbEntity
  8
外形図
  6
CONTINUOUS
 62
     3
100
AcDbCircle
 10
291.17848
 20
1754.136155
 30
0.0
 40
3.0
100
AcDbArc
 50
121.746366
 51
167.464043
  0
ARC
  5
45B
100
AcDbEntity
  8
外形図
  6
CONTINUOUS
 62
     3
100
AcDbCircle
 10
296.297361
 20
1756.313174
 30
0.0
 40
7.348473
100
AcDbArc
 50
114.499992
 51
155.698839
  0
ARC
  5
45C
100
AcDbEntity
  8
外形図
  6
CONTINUOUS
 62
     3
100
AcDbCircle
 10
291.17848
 20
1675.863845
 30
0.0
 40
3.0
100
AcDbArc
 50
192.535957
 51
238.253634
  0
ARC
  5
45D
100
AcDbEntity
  8
外形図
  6
CONTINUOUS
 62
     3
100
AcDbCircle
 10
296.297361
 20
1673.686826
 30
0.0
 40
7.348473
100
AcDbArc
 50
204.301161
 51
245.500008
  0
LINE
  5
45E
100
AcDbEntity
  8
外形図
  6
CONTINUOUS
 62
     3
100
AcDbLine
 10
288.25
 20
1675.212688
 30
0.0
 11
288.25
 21
1754.787312
 31
0.0
  0
LINE
  5
45F
100
AcDbEntity
  8
外形図
  6
CONTINUOUS
 62
     3
100
AcDbLine
 10
289.6
 20
1670.662688
 30
0.0
 11
289.6
 21
1759.337312
 31
0.0
  0
LINE
  5
460
100
AcDbEntity
  8
外形図
  6
CONTINUOUS
 62
     3
100
AcDbLine
 10
293.25
 20
1789.5
 30
0.0
 11
293.25
 21
1640.5
 31
0.0
  0
ARC
  5
461
100
AcDbEntity
  8
外形図
  6
CONTINUOUS
 62
     3
100
AcDbCircle
 10
405.202639
 20
1756.313174
 30
0.0
 40
7.348473
100
AcDbArc
 50
24.301161
 51
65.500008
  0
ARC
  5
462
100
AcDbEntity
  8
外形図
  6
CONTINUOUS
 62
     3
100
AcDbCircle
 10
410.32152
 20
1754.136155
 30
0.0
 40
3.0
100
AcDbArc
 50
12.535957
 51
58.253634
  0
ARC
  5
463
100
AcDbEntity
  8
外形図
  6
CONTINUOUS
 62
     3
100
AcDbCircle
 10
405.202639
 20
1673.686826
 30
0.0
 40
7.348473
100
AcDbArc
 50
294.499992
 51
335.698839
  0
ARC
  5
464
100
AcDbEntity
  8
外形図
  6
CONTINUOUS
 62
     3
100
AcDbCircle
 10
410.32152
 20
1675.863845
 30
0.0
 40
3.0
100
AcDbArc
 50
301.746366
 51
347.464043
  0
LINE
  5
465
100
AcDbEntity
  8
外形図
  6
CONTINUOUS
 62
     3
100
AcDbLine
 10
408.25
 20
1789.5
 30
0.0
 11
408.25
 21
1640.5
 31
0.0
  0
LINE
  5
466
100
AcDbEntity
  8
外形図
  6
CONTINUOUS
 62
     3
100
AcDbLine
 10
411.9
 20
1670.662688
 30
0.0
 11
411.9
 21
1759.337312
 31
0.0
  0
LINE
  5
467
100
AcDbEntity
  8
外形図
  6
CONTINUOUS
 62
     3
100
AcDbLine
 10
413.25
 20
1675.212688
 30
0.0
 11
413.25
 21
1754.787312
 31
0.0
  0
ARC
  5
468
100
AcDbEntity
  8
外形図
  6
CONTINUOUS
 62
     3
100
AcDbCircle
 10
853.95
 20
1804.5
 30
0.0
 40
3.0
100
AcDbArc
 50
90.0
 51
180.0
  0
ARC
  5
469
100
AcDbEntity
  8
外形図
  6
CONTINUOUS
 62
     3
100
AcDbCircle
 10
962.95
 20
1804.5
 30
0.0
 40
3.0
100
AcDbArc
 50
0.0
 51
90.0
  0
ARC
  5
46A
100
AcDbEntity
  8
外形図
  6
CONTINUOUS
 62
     3
100
AcDbCircle
 10
848.87848
 20
1768.636155
 30
0.0
 40
3.0
100
AcDbArc
 50
121.746366
 51
167.464043
  0
ARC
  5
46B
100
AcDbEntity
  8
外形図
  6
CONTINUOUS
 62
     3
100
AcDbCircle
 10
853.997361
 20
1770.813174
 30
0.0
 40
7.348473
100
AcDbArc
 50
114.499992
 51
155.698839
  0
ARC
  5
46C
100
AcDbEntity
  8
外形図
  6
CONTINUOUS
 62
     3
100
AcDbCircle
 10
962.902639
 20
1770.813174
 30
0.0
 40
7.348473
100
AcDbArc
 50
24.301161
 51
65.500008
  0
ARC
  5
46D
100
AcDbEntity
  8
外形図
  6
CONTINUOUS
 62
     3
100
AcDbCircle
 10
968.02152
 20
1768.636155
 30
0.0
 40
3.0
100
AcDbArc
 50
12.535957
 51
58.253634
  0
ARC
  5
46E
100
AcDbEntity
  8
外形図
  6
CONTINUOUS
 62
     3
100
AcDbCircle
 10
870.487749
 20
1765.537749
 30
0.0
 40
2.537749
100
AcDbArc
 50
270.0
 51
313.120863
  0
ARC
  5
46F
100
AcDbEntity
  8
外形図
  6
CONTINUOUS
 62
     3
100
AcDbCircle
 10
908.45
 20
1725.0
 30
0.0
 40
53.0
100
AcDbArc
 50
97.876381
 51
133.120863
  0
ARC
  5
470
100
AcDbEntity
  8
外形図
  6
CONTINUOUS
 62
     3
100
AcDbCircle
 10
908.45
 20
1725.0
 30
0.0
 40
53.0
100
AcDbArc
 50
46.879137
 51
82.123619
  0
LINE
  5
471
100
AcDbEntity
  8
外形図
  6
CONTINUOUS
 62
     3
100
AcDbLine
 10
901.18708
 20
1777.5
 30
0.0
 11
915.71292
 21
1777.5
 31
0.0
  0
ARC
  5
472
100
AcDbEntity
  8
外形図
  6
CONTINUOUS
 62
     3
100
AcDbCircle
 10
946.412251
 20
1765.537749
 30
0.0
 40
2.537749
100
AcDbArc
 50
226.879137
 51
270.0
  0
ARC
  5
473
100
AcDbEntity
  8
外形図
  6
CONTINUOUS
 62
     3
100
AcDbCircle
 10
853.95
 20
1635.5
 30
0.0
 40
3.0
100
AcDbArc
 50
180.0
 51
270.0
  0
ARC
  5
474
100
AcDbEntity
  8
外形図
  6
CONTINUOUS
 62
     3
100
AcDbCircle
 10
962.95
 20
1635.5
 30
0.0
 40
3.0
100
AcDbArc
 50
270.0
 51
0.0
  0
ARC
  5
475
100
AcDbEntity
  8
外形図
  6
CONTINUOUS
 62
     3
100
AcDbCircle
 10
848.87848
 20
1671.363845
 30
0.0
 40
3.0
100
AcDbArc
 50
192.535957
 51
238.253634
  0
ARC
  5
476
100
AcDbEntity
  8
外形図
  6
CONTINUOUS
 62
     3
100
AcDbCircle
 10
853.997361
 20
1669.186826
 30
0.0
 40
7.348473
100
AcDbArc
 50
204.301161
 51
245.500008
  0
ARC
  5
477
100
AcDbEntity
  8
外形図
  6
CONTINUOUS
 62
     3
100
AcDbCircle
 10
962.902639
 20
1669.186826
 30
0.0
 40
7.348473
100
AcDbArc
 50
294.499992
 51
335.698839
  0
ARC
  5
478
100
AcDbEntity
  8
外形図
  6
CONTINUOUS
 62
     3
100
AcDbCircle
 10
968.02152
 20
1671.363845
 30
0.0
 40
3.0
100
AcDbArc
 50
301.746366
 51
347.464043
  0
ARC
  5
479
100
AcDbEntity
  8
外形図
  6
CONTINUOUS
 62
     3
100
AcDbCircle
 10
870.487749
 20
1674.462251
 30
0.0
 40
2.537749
100
AcDbArc
 50
46.879137
 51
90.0
  0
ARC
  5
47A
100
AcDbEntity
  8
外形図
  6
CONTINUOUS
 62
     3
100
AcDbCircle
 10
908.45
 20
1715.0
 30
0.0
 40
53.0
100
AcDbArc
 50
226.879137
 51
262.123619
  0
ARC
  5
47B
100
AcDbEntity
  8
外形図
  6
CONTINUOUS
 62
     3
100
AcDbCircle
 10
908.45
 20
1715.0
 30
0.0
 40
53.0
100
AcDbArc
 50
277.876381
 51
313.120863
  0
LINE
  5
47C
100
AcDbEntity
  8
外形図
  6
CONTINUOUS
 62
     3
100
AcDbLine
 10
901.18708
 20
1662.5
 30
0.0
 11
915.71292
 21
1662.5
 31
0.0
  0
ARC
  5
47D
100
AcDbEntity
  8
外形図
  6
CONTINUOUS
 62
     3
100
AcDbCircle
 10
946.412251
 20
1674.462251
 30
0.0
 40
2.537749
100
AcDbArc
 50
90.0
 51
133.120863
  0
LINE
  5
47E
100
AcDbEntity
  8
外形図
  6
CONTINUOUS
 62
     3
100
AcDbLine
 10
845.95
 20
1670.712688
 30
0.0
 11
845.95
 21
1769.287312
 31
0.0
  0
LINE
  5
47F
100
AcDbEntity
  8
外形図
  6
CONTINUOUS
 62
     3
100
AcDbLine
 10
847.3
 20
1666.162688
 30
0.0
 11
847.3
 21
1773.837312
 31
0.0
  0
LINE
  5
480
100
AcDbEntity
  8
外形図
  6
CONTINUOUS
 62
     3
100
AcDbLine
 10
850.95
 20
1804.5
 30
0.0
 11
850.95
 21
1635.5
 31
0.0
  0
LINE
  5
481
100
AcDbEntity
  8
外形図
  6
CONTINUOUS
 62
     3
100
AcDbLine
 10
965.95
 20
1804.5
 30
0.0
 11
965.95
 21
1635.5
 31
0.0
  0
LINE
  5
482
100
AcDbEntity
  8
外形図
  6
CONTINUOUS
 62
     3
100
AcDbLine
 10
969.6
 20
1666.162688
 30
0.0
 11
969.6
 21
1773.837312
 31
0.0
  0
LINE
  5
483
100
AcDbEntity
  8
外形図
  6
CONTINUOUS
 62
     3
100
AcDbLine
 10
970.95
 20
1670.712688
 30
0.0
 11
970.95
 21
1769.287312
 31
0.0
  0
LINE
  5
484
100
AcDbEntity
  8
外形図
  6
CONTINUOUS
 62
     3
100
AcDbLine
 10
872.222401
 20
1763.685412
 30
0.0
 11
872.222401
 21
1676.314588
 31
0.0
  0
LINE
  5
485
100
AcDbEntity
  8
外形図
  6
CONTINUOUS
 62
     3
100
AcDbLine
 10
882.222401
 20
1763.685412
 30
0.0
 11
882.222401
 21
1676.314588
 31
0.0
  0
LINE
  5
486
100
AcDbEntity
  8
外形図
  6
CONTINUOUS
 62
     3
100
AcDbLine
 10
934.677599
 20
1763.685412
 30
0.0
 11
934.677599
 21
1676.314588
 31
0.0
  0
LINE
  5
487
100
AcDbEntity
  8
外形図
  6
CONTINUOUS
 62
     3
100
AcDbLine
 10
944.677599
 20
1763.685412
 30
0.0
 11
944.677599
 21
1676.314588
 31
0.0
  0
ARC
  5
488
100
AcDbEntity
  8
外形図
  6
CONTINUOUS
 62
     3
100
AcDbCircle
 10
1411.65
 20
1804.5
 30
0.0
 40
3.0
100
AcDbArc
 50
90.0
 51
180.0
  0
ARC
  5
489
100
AcDbEntity
  8
外形図
  6
CONTINUOUS
 62
     3
100
AcDbCircle
 10
1520.65
 20
1804.5
 30
0.0
 40
3.0
100
AcDbArc
 50
0.0
 51
90.0
  0
ARC
  5
48A
100
AcDbEntity
  8
外形図
  6
CONTINUOUS
 62
     3
100
AcDbCircle
 10
1411.65
 20
1625.5
 30
0.0
 40
3.0
100
AcDbArc
 50
180.0
 51
270.0
  0
ARC
  5
48B
100
AcDbEntity
  8
外形図
  6
CONTINUOUS
 62
     3
100
AcDbCircle
 10
1520.65
 20
1625.5
 30
0.0
 40
3.0
100
AcDbArc
 50
270.0
 51
0.0
  0
ARC
  5
48C
100
AcDbEntity
  8
外形図
  6
CONTINUOUS
 62
     3
100
AcDbCircle
 10
1406.57848
 20
1768.636155
 30
0.0
 40
3.0
100
AcDbArc
 50
121.746366
 51
167.464043
  0
ARC
  5
48D
100
AcDbEntity
  8
外形図
  6
CONTINUOUS
 62
     3
100
AcDbCircle
 10
1411.697361
 20
1770.813174
 30
0.0
 40
7.348473
100
AcDbArc
 50
114.499992
 51
155.698839
  0
ARC
  5
48E
100
AcDbEntity
  8
外形図
  6
CONTINUOUS
 62
     3
100
AcDbCircle
 10
1520.602639
 20
1770.813174
 30
0.0
 40
7.348473
100
AcDbArc
 50
24.301161
 51
65.500008
  0
ARC
  5
48F
100
AcDbEntity
  8
外形図
  6
CONTINUOUS
 62
     3
100
AcDbCircle
 10
1525.72152
 20
1768.636155
 30
0.0
 40
3.0
100
AcDbArc
 50
12.535957
 51
58.253634
  0
ARC
  5
490
100
AcDbEntity
  8
外形図
  6
CONTINUOUS
 62
     3
100
AcDbCircle
 10
1406.57848
 20
1661.363845
 30
0.0
 40
3.0
100
AcDbArc
 50
192.535957
 51
238.253634
  0
ARC
  5
491
100
AcDbEntity
  8
外形図
  6
CONTINUOUS
 62
     3
100
AcDbCircle
 10
1411.697361
 20
1659.186826
 30
0.0
 40
7.348473
100
AcDbArc
 50
204.301161
 51
245.500008
  0
ARC
  5
492
100
AcDbEntity
  8
外形図
  6
CONTINUOUS
 62
     3
100
AcDbCircle
 10
1520.602639
 20
1659.186826
 30
0.0
 40
7.348473
100
AcDbArc
 50
294.499992
 51
335.698839
  0
ARC
  5
493
100
AcDbEntity
  8
外形図
  6
CONTINUOUS
 62
     3
100
AcDbCircle
 10
1525.72152
 20
1661.363845
 30
0.0
 40
3.0
100
AcDbArc
 50
301.746366
 51
347.464043
  0
LINE
  5
494
100
AcDbEntity
  8
外形図
  6
CONTINUOUS
 62
     3
100
AcDbLine
 10
1403.65
 20
1660.712688
 30
0.0
 11
1403.65
 21
1769.287312
 31
0.0
  0
LINE
  5
495
100
AcDbEntity
  8
外形図
  6
CONTINUOUS
 62
     3
100
AcDbLine
 10
1405.0
 20
1656.162688
 30
0.0
 11
1405.0
 21
1773.837312
 31
0.0
  0
LINE
  5
496
100
AcDbEntity
  8
外形図
  6
CONTINUOUS
 62
     3
100
AcDbLine
 10
1408.65
 20
1804.5
 30
0.0
 11
1408.65
 21
1625.5
 31
0.0
  0
LINE
  5
497
100
AcDbEntity
  8
外形図
  6
CONTINUOUS
 62
     3
100
AcDbLine
 10
1523.65
 20
1804.5
 30
0.0
 11
1523.65
 21
1625.5
 31
0.0
  0
LINE
  5
498
100
AcDbEntity
  8
外形図
  6
CONTINUOUS
 62
     3
100
AcDbLine
 10
1527.3
 20
1656.162688
 30
0.0
 11
1527.3
 21
1773.837312
 31
0.0
  0
LINE
  5
499
100
AcDbEntity
  8
外形図
  6
CONTINUOUS
 62
     3
100
AcDbLine
 10
1528.65
 20
1660.712688
 30
0.0
 11
1528.65
 21
1769.287312
 31
0.0
  0
ARC
  5
49A
100
AcDbEntity
  8
外形図
  6
CONTINUOUS
 62
     3
100
AcDbCircle
 10
1428.187749
 20
1765.537749
 30
0.0
 40
2.537749
100
AcDbArc
 50
270.0
 51
313.120863
  0
ARC
  5
49B
100
AcDbEntity
  8
外形図
  6
CONTINUOUS
 62
     3
100
AcDbCircle
 10
1466.15
 20
1725.0
 30
0.0
 40
53.0
100
AcDbArc
 50
97.876381
 51
133.120863
  0
ARC
  5
49C
100
AcDbEntity
  8
外形図
  6
CONTINUOUS
 62
     3
100
AcDbCircle
 10
1466.15
 20
1725.0
 30
0.0
 40
53.0
100
AcDbArc
 50
46.879137
 51
82.123619
  0
LINE
  5
49D
100
AcDbEntity
  8
外形図
  6
CONTINUOUS
 62
     3
100
AcDbLine
 10
1458.88708
 20
1777.5
 30
0.0
 11
1473.41292
 21
1777.5
 31
0.0
  0
ARC
  5
49E
100
AcDbEntity
  8
外形図
  6
CONTINUOUS
 62
     3
100
AcDbCircle
 10
1504.112251
 20
1765.537749
 30
0.0
 40
2.537749
100
AcDbArc
 50
226.879137
 51
270.0
  0
ARC
  5
49F
100
AcDbEntity
  8
外形図
  6
CONTINUOUS
 62
     3
100
AcDbCircle
 10
1428.187749
 20
1664.462251
 30
0.0
 40
2.537749
100
AcDbArc
 50
46.879137
 51
90.0
  0
ARC
  5
4A0
100
AcDbEntity
  8
外形図
  6
CONTINUOUS
 62
     3
100
AcDbCircle
 10
1466.15
 20
1705.0
 30
0.0
 40
53.0
100
AcDbArc
 50
226.879137
 51
262.123619
  0
ARC
  5
4A1
100
AcDbEntity
  8
外形図
  6
CONTINUOUS
 62
     3
100
AcDbCircle
 10
1466.15
 20
1705.0
 30
0.0
 40
53.0
100
AcDbArc
 50
277.876381
 51
313.120863
  0
LINE
  5
4A2
100
AcDbEntity
  8
外形図
  6
CONTINUOUS
 62
     3
100
AcDbLine
 10
1458.88708
 20
1652.5
 30
0.0
 11
1473.41292
 21
1652.5
 31
0.0
  0
ARC
  5
4A3
100
AcDbEntity
  8
外形図
  6
CONTINUOUS
 62
     3
100
AcDbCircle
 10
1504.112251
 20
1664.462251
 30
0.0
 40
2.537749
100
AcDbArc
 50
90.0
 51
133.120863
  0
LINE
  5
4A4
100
AcDbEntity
  8
外形図
  6
CONTINUOUS
 62
     3
100
AcDbLine
 10
1429.922401
 20
1763.685412
 30
0.0
 11
1429.922401
 21
1666.314588
 31
0.0
  0
LINE
  5
4A5
100
AcDbEntity
  8
外形図
  6
CONTINUOUS
 62
     3
100
AcDbLine
 10
1439.922401
 20
1763.685412
 30
0.0
 11
1439.922401
 21
1666.314588
 31
0.0
  0
LINE
  5
4A6
100
AcDbEntity
  8
外形図
  6
CONTINUOUS
 62
     3
100
AcDbLine
 10
1502.377599
 20
1763.685412
 30
0.0
 11
1502.377599
 21
1666.314588
 31
0.0
  0
LINE
  5
4A7
100
AcDbEntity
  8
外形図
  6
CONTINUOUS
 62
     3
100
AcDbLine
 10
1492.377599
 20
1763.685412
 30
0.0
 11
1492.377599
 21
1666.314588
 31
0.0
  0
ARC
  5
4A8
100
AcDbEntity
  8
外形図
  6
CONTINUOUS
 62
     3
100
AcDbCircle
 10
-645.75
 20
1292.625
 30
0.0
 40
3.0
100
AcDbArc
 50
90.0
 51
180.0
  0
ARC
  5
4A9
100
AcDbEntity
  8
外形図
  6
CONTINUOUS
 62
     3
100
AcDbCircle
 10
-511.75
 20
1292.625
 30
0.0
 40
3.0
100
AcDbArc
 50
0.0
 51
90.0
  0
ARC
  5
4AA
100
AcDbEntity
  8
外形図
  6
CONTINUOUS
 62
     3
100
AcDbCircle
 10
-645.75
 20
1088.625
 30
0.0
 40
3.0
100
AcDbArc
 50
180.0
 51
270.0
  0
ARC
  5
4AB
100
AcDbEntity
  8
外形図
  6
CONTINUOUS
 62
     3
100
AcDbCircle
 10
-511.75
 20
1088.625
 30
0.0
 40
3.0
100
AcDbArc
 50
270.0
 51
0.0
  0
ARC
  5
4AC
100
AcDbEntity
  8
外形図
  6
CONTINUOUS
 62
     3
100
AcDbCircle
 10
-650.82152
 20
1257.761155
 30
0.0
 40
3.0
100
AcDbArc
 50
121.746366
 51
167.464043
  0
ARC
  5
4AD
100
AcDbEntity
  8
外形図
  6
CONTINUOUS
 62
     3
100
AcDbCircle
 10
-645.702639
 20
1259.938174
 30
0.0
 40
7.348473
100
AcDbArc
 50
114.499992
 51
155.698839
  0
ARC
  5
4AE
100
AcDbEntity
  8
外形図
  6
CONTINUOUS
 62
     3
100
AcDbCircle
 10
-506.67848
 20
1257.761155
 30
0.0
 40
3.0
100
AcDbArc
 50
12.535957
 51
58.253634
  0
ARC
  5
4AF
100
AcDbEntity
  8
外形図
  6
CONTINUOUS
 62
     3
100
AcDbCircle
 10
-511.797361
 20
1259.938174
 30
0.0
 40
7.348473
100
AcDbArc
 50
24.301161
 51
65.500008
  0
ARC
  5
4B0
100
AcDbEntity
  8
外形図
  6
CONTINUOUS
 62
     3
100
AcDbCircle
 10
-650.82152
 20
1123.488845
 30
0.0
 40
3.0
100
AcDbArc
 50
192.535957
 51
238.253634
  0
ARC
  5
4B1
100
AcDbEntity
  8
外形図
  6
CONTINUOUS
 62
     3
100
AcDbCircle
 10
-645.702639
 20
1121.311826
 30
0.0
 40
7.348473
100
AcDbArc
 50
204.301161
 51
245.500008
  0
ARC
  5
4B2
100
AcDbEntity
  8
外形図
  6
CONTINUOUS
 62
     3
100
AcDbCircle
 10
-506.67848
 20
1123.488845
 30
0.0
 40
3.0
100
AcDbArc
 50
301.746366
 51
347.464043
  0
ARC
  5
4B3
100
AcDbEntity
  8
外形図
  6
CONTINUOUS
 62
     3
100
AcDbCircle
 10
-511.797361
 20
1121.311826
 30
0.0
 40
7.348473
100
AcDbArc
 50
294.499992
 51
335.698839
  0
LINE
  5
4B4
100
AcDbEntity
  8
外形図
  6
CONTINUOUS
 62
     3
100
AcDbLine
 10
-653.75
 20
1122.837688
 30
0.0
 11
-653.75
 21
1258.412312
 31
0.0
  0
LINE
  5
4B5
100
AcDbEntity
  8
外形図
  6
CONTINUOUS
 62
     3
100
AcDbLine
 10
-652.4
 20
1118.287688
 30
0.0
 11
-652.4
 21
1262.962312
 31
0.0
  0
LINE
  5
4B6
100
AcDbEntity
  8
外形図
  6
CONTINUOUS
 62
     3
100
AcDbLine
 10
-503.75
 20
1122.837688
 30
0.0
 11
-503.75
 21
1258.412312
 31
0.0
  0
LINE
  5
4B7
100
AcDbEntity
  8
外形図
  6
CONTINUOUS
 62
     3
100
AcDbLine
 10
-505.1
 20
1118.287688
 30
0.0
 11
-505.1
 21
1262.962312
 31
0.0
  0
LINE
  5
4B8
100
AcDbEntity
  8
外形図
  6
CONTINUOUS
 62
     3
100
AcDbLine
 10
-648.75
 20
1292.625
 30
0.0
 11
-648.75
 21
1088.625
 31
0.0
  0
LINE
  5
4B9
100
AcDbEntity
  8
外形図
  6
CONTINUOUS
 62
     3
100
AcDbLine
 10
-508.75
 20
1292.625
 30
0.0
 11
-508.75
 21
1088.625
 31
0.0
  0
ARC
  5
4BA
100
AcDbEntity
  8
外形図
  6
CONTINUOUS
 62
     3
100
AcDbCircle
 10
-578.75
 20
1190.625
 30
0.0
 40
76.0
100
AcDbArc
 50
58.211669
 51
121.788331
  0
ARC
  5
4BB
100
AcDbEntity
  8
外形図
  6
CONTINUOUS
 62
     3
100
AcDbCircle
 10
-578.75
 20
1190.625
 30
0.0
 40
76.0
100
AcDbArc
 50
238.211669
 51
301.788331
  0
LINE
  5
4BC
100
AcDbEntity
  8
外形図
  6
CONTINUOUS
 62
     3
100
AcDbLine
 10
-618.785484
 20
1255.225
 30
0.0
 11
-618.785484
 21
1126.025
 31
0.0
  0
LINE
  5
4BD
100
AcDbEntity
  8
外形図
  6
CONTINUOUS
 62
     3
100
AcDbLine
 10
-624.785484
 20
1252.562619
 30
0.0
 11
-624.785484
 21
1128.687381
 31
0.0
  0
LINE
  5
4BE
100
AcDbEntity
  8
外形図
  6
CONTINUOUS
 62
     3
100
AcDbLine
 10
-538.714516
 20
1255.225
 30
0.0
 11
-538.714516
 21
1126.025
 31
0.0
  0
LINE
  5
4BF
100
AcDbEntity
  8
外形図
  6
CONTINUOUS
 62
     3
100
AcDbLine
 10
-532.714516
 20
1252.562619
 30
0.0
 11
-532.714516
 21
1128.687381
 31
0.0
  0
LINE
  5
4C0
100
AcDbEntity
  8
外形図
  6
CONTINUOUS
 62
     3
100
AcDbLine
 10
405.604353
 20
1264.625
 30
0.0
 11
405.604353
 21
1116.625
 31
0.0
  0
LINE
  5
4C1
100
AcDbEntity
  8
外形図
  6
CONTINUOUS
 62
     3
100
AcDbLine
 10
390.901124
 20
1269.181701
 30
0.0
 11
390.901124
 21
1112.068299
 31
0.0
  0
LINE
  5
4C2
100
AcDbEntity
  8
外形図
  6
CONTINUOUS
 62
     3
100
AcDbLine
 10
310.598876
 20
1269.181701
 30
0.0
 11
310.598876
 21
1112.068299
 31
0.0
  0
LINE
  5
4C3
100
AcDbEntity
  8
外形図
  6
CONTINUOUS
 62
     3
100
AcDbLine
 10
295.895647
 20
1264.625
 30
0.0
 11
295.895647
 21
1116.625
 31
0.0
  0
ARC
  5
4C4
100
AcDbEntity
  8
外形図
  6
CONTINUOUS
 62
     3
100
AcDbCircle
 10
350.75
 20
1170.625
 30
0.0
 40
71.0
100
AcDbArc
 50
235.56237
 51
304.43763
  0
ARC
  5
4C5
100
AcDbEntity
  8
外形図
  6
CONTINUOUS
 62
     3
100
AcDbCircle
 10
405.604353
 20
1090.625
 30
0.0
 40
26.0
100
AcDbArc
 50
90.0
 51
124.43763
  0
ARC
  5
4C6
100
AcDbEntity
  8
外形図
  6
CONTINUOUS
 62
     3
100
AcDbCircle
 10
295.895647
 20
1090.625
 30
0.0
 40
26.0
100
AcDbArc
 50
55.56237
 51
90.0
  0
ARC
  5
4C7
100
AcDbEntity
  8
外形図
  6
CONTINUOUS
 62
     3
100
AcDbCircle
 10
350.75
 20
1210.625
 30
0.0
 40
71.0
100
AcDbArc
 50
55.56237
 51
124.43763
  0
ARC
  5
4C8
100
AcDbEntity
  8
外形図
  6
CONTINUOUS
 62
     3
100
AcDbCircle
 10
405.604353
 20
1290.625
 30
0.0
 40
26.0
100
AcDbArc
 50
235.56237
 51
270.0
  0
ARC
  5
4C9
100
AcDbEntity
  8
外形図
  6
CONTINUOUS
 62
     3
100
AcDbCircle
 10
295.895647
 20
1290.625
 30
0.0
 40
26.0
100
AcDbArc
 50
270.0
 51
304.43763
  0
LINE
  5
4CA
100
AcDbEntity
  8
外形図
  6
CONTINUOUS
 62
     3
100
AcDbLine
 10
433.25
 20
1312.625
 30
0.0
 11
433.25
 21
1068.625
 31
0.0
  0
LINE
  5
4CB
100
AcDbEntity
  8
外形図
  6
CONTINUOUS
 62
     3
100
AcDbLine
 10
436.9
 20
1103.287688
 30
0.0
 11
436.9
 21
1277.962312
 31
0.0
  0
LINE
  5
4CC
100
AcDbEntity
  8
外形図
  6
CONTINUOUS
 62
     3
100
AcDbLine
 10
438.25
 20
1107.837688
 30
0.0
 11
438.25
 21
1273.412312
 31
0.0
  0
ARC
  5
4CD
100
AcDbEntity
  8
外形図
  6
CONTINUOUS
 62
     3
100
AcDbCircle
 10
430.25
 20
1068.625
 30
0.0
 40
3.0
100
AcDbArc
 50
270.0
 51
0.0
  0
ARC
  5
4CE
100
AcDbEntity
  8
外形図
  6
CONTINUOUS
 62
     3
100
AcDbCircle
 10
430.202639
 20
1106.311826
 30
0.0
 40
7.348473
100
AcDbArc
 50
294.499992
 51
335.698839
  0
ARC
  5
4CF
100
AcDbEntity
  8
外形図
  6
CONTINUOUS
 62
     3
100
AcDbCircle
 10
435.32152
 20
1108.488845
 30
0.0
 40
3.0
100
AcDbArc
 50
301.746366
 51
347.464043
  0
ARC
  5
4D0
100
AcDbEntity
  8
外形図
  6
CONTINUOUS
 62
     3
100
AcDbCircle
 10
430.25
 20
1312.625
 30
0.0
 40
3.0
100
AcDbArc
 50
0.0
 51
90.0
  0
ARC
  5
4D1
100
AcDbEntity
  8
外形図
  6
CONTINUOUS
 62
     3
100
AcDbCircle
 10
430.202639
 20
1274.938174
 30
0.0
 40
7.348473
100
AcDbArc
 50
24.301161
 51
65.500008
  0
ARC
  5
4D2
100
AcDbEntity
  8
外形図
  6
CONTINUOUS
 62
     3
100
AcDbCircle
 10
435.32152
 20
1272.761155
 30
0.0
 40
3.0
100
AcDbArc
 50
12.535957
 51
58.253634
  0
LINE
  5
4D3
100
AcDbEntity
  8
外形図
  6
CONTINUOUS
 62
     3
100
AcDbLine
 10
268.25
 20
1312.625
 30
0.0
 11
268.25
 21
1068.625
 31
0.0
  0
LINE
  5
4D4
100
AcDbEntity
  8
外形図
  6
CONTINUOUS
 62
     3
100
AcDbLine
 10
264.6
 20
1103.287688
 30
0.0
 11
264.6
 21
1277.962312
 31
0.0
  0
LINE
  5
4D5
100
AcDbEntity
  8
外形図
  6
CONTINUOUS
 62
     3
100
AcDbLine
 10
263.25
 20
1107.837688
 30
0.0
 11
263.25
 21
1273.412312
 31
0.0
  0
ARC
  5
4D6
100
AcDbEntity
  8
外形図
  6
CONTINUOUS
 62
     3
100
AcDbCircle
 10
271.25
 20
1068.625
 30
0.0
 40
3.0
100
AcDbArc
 50
180.0
 51
270.0
  0
ARC
  5
4D7
100
AcDbEntity
  8
外形図
  6
CONTINUOUS
 62
     3
100
AcDbCircle
 10
271.297361
 20
1106.311826
 30
0.0
 40
7.348473
100
AcDbArc
 50
204.301161
 51
245.500008
  0
ARC
  5
4D8
100
AcDbEntity
  8
外形図
  6
CONTINUOUS
 62
     3
100
AcDbCircle
 10
266.17848
 20
1108.488845
 30
0.0
 40
3.0
100
AcDbArc
 50
192.535957
 51
238.253634
  0
ARC
  5
4D9
100
AcDbEntity
  8
外形図
  6
CONTINUOUS
 62
     3
100
AcDbCircle
 10
271.25
 20
1312.625
 30
0.0
 40
3.0
100
AcDbArc
 50
90.0
 51
180.0
  0
ARC
  5
4DA
100
AcDbEntity
  8
外形図
  6
CONTINUOUS
 62
     3
100
AcDbCircle
 10
271.297361
 20
1274.938174
 30
0.0
 40
7.348473
100
AcDbArc
 50
114.499992
 51
155.698839
  0
ARC
  5
4DB
100
AcDbEntity
  8
外形図
  6
CONTINUOUS
 62
     3
100
AcDbCircle
 10
266.17848
 20
1272.761155
 30
0.0
 40
3.0
100
AcDbArc
 50
121.746366
 51
167.464043
  0
ARC
  5
4DC
100
AcDbEntity
  8
外形図
  6
CONTINUOUS
 62
     3
100
AcDbCircle
 10
1183.17848
 20
1297.761155
 30
0.0
 40
3.0
100
AcDbArc
 50
121.746366
 51
167.464043
  0
ARC
  5
4DD
100
AcDbEntity
  8
外形図
  6
CONTINUOUS
 62
     3
100
AcDbCircle
 10
1188.297361
 20
1299.938174
 30
0.0
 40
7.348473
100
AcDbArc
 50
114.499992
 51
155.698839
  0
ARC
  5
4DE
100
AcDbEntity
  8
外形図
  6
CONTINUOUS
 62
     3
100
AcDbCircle
 10
1377.32152
 20
1297.761155
 30
0.0
 40
3.0
100
AcDbArc
 50
12.535957
 51
58.253634
  0
ARC
  5
4DF
100
AcDbEntity
  8
外形図
  6
CONTINUOUS
 62
     3
100
AcDbCircle
 10
1372.202639
 20
1299.938174
 30
0.0
 40
7.348473
100
AcDbArc
 50
24.301161
 51
65.500008
  0
ARC
  5
4E0
100
AcDbEntity
  8
外形図
  6
CONTINUOUS
 62
     3
100
AcDbCircle
 10
1377.32152
 20
1103.488845
 30
0.0
 40
3.0
100
AcDbArc
 50
301.746366
 51
347.464043
  0
ARC
  5
4E1
100
AcDbEntity
  8
外形図
  6
CONTINUOUS
 62
     3
100
AcDbCircle
 10
1372.202639
 20
1101.311826
 30
0.0
 40
7.348473
100
AcDbArc
 50
294.499992
 51
335.698839
  0
LINE
  5
4E2
100
AcDbEntity
  8
外形図
  6
CONTINUOUS
 62
     3
100
AcDbLine
 10
1380.25
 20
1102.837688
 30
0.0
 11
1380.25
 21
1298.412312
 31
0.0
  0
LINE
  5
4E3
100
AcDbEntity
  8
外形図
  6
CONTINUOUS
 62
     3
100
AcDbLine
 10
1378.9
 20
1098.287688
 30
0.0
 11
1378.9
 21
1302.962312
 31
0.0
  0
ARC
  5
4E4
100
AcDbEntity
  8
外形図
  6
CONTINUOUS
 62
     3
100
AcDbCircle
 10
1183.17848
 20
1103.488845
 30
0.0
 40
3.0
100
AcDbArc
 50
192.535957
 51
238.253634
  0
ARC
  5
4E5
100
AcDbEntity
  8
外形図
  6
CONTINUOUS
 62
     3
100
AcDbCircle
 10
1188.297361
 20
1101.311826
 30
0.0
 40
7.348473
100
AcDbArc
 50
204.301161
 51
245.500008
  0
LINE
  5
4E6
100
AcDbEntity
  8
外形図
  6
CONTINUOUS
 62
     3
100
AcDbLine
 10
1180.25
 20
1102.837688
 30
0.0
 11
1180.25
 21
1298.412312
 31
0.0
  0
LINE
  5
4E7
100
AcDbEntity
  8
外形図
  6
CONTINUOUS
 62
     3
100
AcDbLine
 10
1181.6
 20
1098.287688
 30
0.0
 11
1181.6
 21
1302.962312
 31
0.0
  0
ARC
  5
4E8
100
AcDbEntity
  8
外形図
  6
CONTINUOUS
 62
     3
100
AcDbCircle
 10
1188.25
 20
1337.625
 30
0.0
 40
3.0
100
AcDbArc
 50
90.0
 51
180.0
  0
ARC
  5
4E9
100
AcDbEntity
  8
外形図
  6
CONTINUOUS
 62
     3
100
AcDbCircle
 10
1372.25
 20
1337.625
 30
0.0
 40
3.0
100
AcDbArc
 50
0.0
 51
90.0
  0
ARC
  5
4EA
100
AcDbEntity
  8
外形図
  6
CONTINUOUS
 62
     3
100
AcDbCircle
 10
1188.25
 20
1063.625
 30
0.0
 40
3.0
100
AcDbArc
 50
180.0
 51
270.0
  0
ARC
  5
4EB
100
AcDbEntity
  8
外形図
  6
CONTINUOUS
 62
     3
100
AcDbCircle
 10
1372.25
 20
1063.625
 30
0.0
 40
3.0
100
AcDbArc
 50
270.0
 51
0.0
  0
LINE
  5
4EC
100
AcDbEntity
  8
外形図
  6
CONTINUOUS
 62
     3
100
AcDbLine
 10
1375.25
 20
1337.625
 30
0.0
 11
1375.25
 21
1063.625
 31
0.0
  0
LINE
  5
4ED
100
AcDbEntity
  8
外形図
  6
CONTINUOUS
 62
     3
100
AcDbLine
 10
1185.25
 20
1337.625
 30
0.0
 11
1185.25
 21
1063.625
 31
0.0
  0
ARC
  5
4EE
100
AcDbEntity
  8
外形図
  6
CONTINUOUS
 62
     3
100
AcDbCircle
 10
1214.28789
 20
1315.625
 30
0.0
 40
28.0
100
AcDbArc
 50
270.0
 51
302.137473
  0
ARC
  5
4EF
100
AcDbEntity
  8
外形図
  6
CONTINUOUS
 62
     3
100
AcDbCircle
 10
1346.21211
 20
1315.625
 30
0.0
 40
28.0
100
AcDbArc
 50
237.862527
 51
270.0
  0
ARC
  5
4F0
100
AcDbEntity
  8
外形図
  6
CONTINUOUS
 62
     3
100
AcDbCircle
 10
1280.25
 20
1210.625
 30
0.0
 40
96.0
100
AcDbArc
 50
57.862527
 51
122.137473
  0
ARC
  5
4F1
100
AcDbEntity
  8
外形図
  6
CONTINUOUS
 62
     3
100
AcDbCircle
 10
1214.28789
 20
1085.625
 30
0.0
 40
28.0
100
AcDbArc
 50
57.862527
 51
90.0
  0
ARC
  5
4F2
100
AcDbEntity
  8
外形図
  6
CONTINUOUS
 62
     3
100
AcDbCircle
 10
1346.21211
 20
1085.625
 30
0.0
 40
28.0
100
AcDbArc
 50
90.0
 51
122.137473
  0
ARC
  5
4F3
100
AcDbEntity
  8
外形図
  6
CONTINUOUS
 62
     3
100
AcDbCircle
 10
1280.25
 20
1190.625
 30
0.0
 40
96.0
100
AcDbArc
 50
237.862527
 51
302.137473
  0
LINE
  5
4F4
100
AcDbEntity
  8
外形図
  6
CONTINUOUS
 62
     3
100
AcDbLine
 10
1214.28789
 20
1287.625
 30
0.0
 11
1214.28789
 21
1113.625
 31
0.0
  0
LINE
  5
4F5
100
AcDbEntity
  8
外形図
  6
CONTINUOUS
 62
     3
100
AcDbLine
 10
1229.18256
 20
1291.915323
 30
0.0
 11
1229.18256
 21
1109.334677
 31
0.0
  0
LINE
  5
4F6
100
AcDbEntity
  8
外形図
  6
CONTINUOUS
 62
     3
100
AcDbLine
 10
1331.31744
 20
1291.915323
 30
0.0
 11
1331.31744
 21
1109.334677
 31
0.0
  0
LINE
  5
4F7
100
AcDbEntity
  8
外形図
  6
CONTINUOUS
 62
     3
100
AcDbLine
 10
1346.21211
 20
1287.625
 30
0.0
 11
1346.21211
 21
1113.625
 31
0.0
  0
ARC
  5
4F8
100
AcDbEntity
  8
外形図
  6
CONTINUOUS
 62
     3
100
AcDbCircle
 10
-675.82152
 20
565.011155
 30
0.0
 40
3.0
100
AcDbArc
 50
121.746366
 51
167.464043
  0
ARC
  5
4F9
100
AcDbEntity
  8
外形図
  6
CONTINUOUS
 62
     3
100
AcDbCircle
 10
-670.702639
 20
567.188174
 30
0.0
 40
7.348473
100
AcDbArc
 50
114.499992
 51
155.698839
  0
ARC
  5
4FA
100
AcDbEntity
  8
外形図
  6
CONTINUOUS
 62
     3
100
AcDbCircle
 10
-675.82152
 20
318.738845
 30
0.0
 40
3.0
100
AcDbArc
 50
192.535957
 51
238.253634
  0
ARC
  5
4FB
100
AcDbEntity
  8
外形図
  6
CONTINUOUS
 62
     3
100
AcDbCircle
 10
-670.702639
 20
316.561826
 30
0.0
 40
7.348473
100
AcDbArc
 50
204.301161
 51
245.500008
  0
LINE
  5
4FC
100
AcDbEntity
  8
外形図
  6
CONTINUOUS
 62
     3
100
AcDbLine
 10
-678.75
 20
318.087688
 30
0.0
 11
-678.75
 21
565.662312
 31
0.0
  0
LINE
  5
4FD
100
AcDbEntity
  8
外形図
  6
CONTINUOUS
 62
     3
100
AcDbLine
 10
-677.4
 20
313.537688
 30
0.0
 11
-677.4
 21
570.212312
 31
0.0
  0
ARC
  5
4FE
100
AcDbEntity
  8
外形図
  6
CONTINUOUS
 62
     3
100
AcDbCircle
 10
-670.75
 20
603.875
 30
0.0
 40
3.0
100
AcDbArc
 50
90.0
 51
180.0
  0
ARC
  5
4FF
100
AcDbEntity
  8
外形図
  6
CONTINUOUS
 62
     3
100
AcDbCircle
 10
-670.75
 20
279.875
 30
0.0
 40
3.0
100
AcDbArc
 50
180.0
 51
270.0
  0
ARC
  5
500
100
AcDbEntity
  8
外形図
  6
CONTINUOUS
 62
     3
100
AcDbCircle
 10
-481.67848
 20
565.011155
 30
0.0
 40
3.0
100
AcDbArc
 50
12.535957
 51
58.253634
  0
ARC
  5
501
100
AcDbEntity
  8
外形図
  6
CONTINUOUS
 62
     3
100
AcDbCircle
 10
-486.797361
 20
567.188174
 30
0.0
 40
7.348473
100
AcDbArc
 50
24.301161
 51
65.500008
  0
ARC
  5
502
100
AcDbEntity
  8
外形図
  6
CONTINUOUS
 62
     3
100
AcDbCircle
 10
-481.67848
 20
318.738845
 30
0.0
 40
3.0
100
AcDbArc
 50
301.746366
 51
347.464043
  0
ARC
  5
503
100
AcDbEntity
  8
外形図
  6
CONTINUOUS
 62
     3
100
AcDbCircle
 10
-486.797361
 20
316.561826
 30
0.0
 40
7.348473
100
AcDbArc
 50
294.499992
 51
335.698839
  0
LINE
  5
504
100
AcDbEntity
  8
外形図
  6
CONTINUOUS
 62
     3
100
AcDbLine
 10
-478.75
 20
318.087688
 30
0.0
 11
-478.75
 21
565.662312
 31
0.0
  0
LINE
  5
505
100
AcDbEntity
  8
外形図
  6
CONTINUOUS
 62
     3
100
AcDbLine
 10
-480.1
 20
313.537688
 30
0.0
 11
-480.1
 21
570.212312
 31
0.0
  0
ARC
  5
506
100
AcDbEntity
  8
外形図
  6
CONTINUOUS
 62
     3
100
AcDbCircle
 10
-486.75
 20
603.875
 30
0.0
 40
3.0
100
AcDbArc
 50
0.0
 51
90.0
  0
ARC
  5
507
100
AcDbEntity
  8
外形図
  6
CONTINUOUS
 62
     3
100
AcDbCircle
 10
-486.75
 20
279.875
 30
0.0
 40
3.0
100
AcDbArc
 50
270.0
 51
0.0
  0
LINE
  5
508
100
AcDbEntity
  8
外形図
  6
CONTINUOUS
 62
     3
100
AcDbLine
 10
-483.75
 20
603.875
 30
0.0
 11
-483.75
 21
279.875
 31
0.0
  0
ARC
  5
509
100
AcDbEntity
  8
外形図
  6
CONTINUOUS
 62
     3
100
AcDbCircle
 10
-639.413004
 20
583.875
 30
0.0
 40
30.0
100
AcDbArc
 50
270.0
 51
306.493767
  0
ARC
  5
50A
100
AcDbEntity
  8
外形図
  6
CONTINUOUS
 62
     3
100
AcDbCircle
 10
-518.086996
 20
583.875
 30
0.0
 40
30.0
100
AcDbArc
 50
233.506233
 51
270.0
  0
ARC
  5
50B
100
AcDbEntity
  8
外形図
  6
CONTINUOUS
 62
     3
100
AcDbCircle
 10
-578.75
 20
501.875
 30
0.0
 40
72.0
100
AcDbArc
 50
53.506233
 51
126.493767
  0
ARC
  5
50C
100
AcDbEntity
  8
外形図
  6
CONTINUOUS
 62
     3
100
AcDbCircle
 10
-639.413004
 20
299.875
 30
0.0
 40
30.0
100
AcDbArc
 50
53.506233
 51
90.0
  0
ARC
  5
50D
100
AcDbEntity
  8
外形図
  6
CONTINUOUS
 62
     3
100
AcDbCircle
 10
-518.086996
 20
299.875
 30
0.0
 40
30.0
100
AcDbArc
 50
90.0
 51
126.493767
  0
ARC
  5
50E
100
AcDbEntity
  8
外形図
  6
CONTINUOUS
 62
     3
100
AcDbCircle
 10
-578.75
 20
381.875
 30
0.0
 40
72.0
100
AcDbArc
 50
233.506233
 51
306.493767
  0
LINE
  5
50F
100
AcDbEntity
  8
外形図
  6
CONTINUOUS
 62
     3
100
AcDbLine
 10
-639.413004
 20
553.875
 30
0.0
 11
-639.413004
 21
329.875
 31
0.0
  0
LINE
  5
510
100
AcDbEntity
  8
外形図
  6
CONTINUOUS
 62
     3
100
AcDbLine
 10
-621.570944
 20
559.757353
 30
0.0
 11
-621.570944
 21
323.992647
 31
0.0
  0
LINE
  5
511
100
AcDbEntity
  8
外形図
  6
CONTINUOUS
 62
     3
100
AcDbLine
 10
-518.086996
 20
553.875
 30
0.0
 11
-518.086996
 21
329.875
 31
0.0
  0
LINE
  5
512
100
AcDbEntity
  8
外形図
  6
CONTINUOUS
 62
     3
100
AcDbLine
 10
-535.929056
 20
559.757353
 30
0.0
 11
-535.929056
 21
323.992647
 31
0.0
  0
LINE
  5
513
100
AcDbEntity
  8
外形図
  6
CONTINUOUS
 62
     3
100
AcDbLine
 10
-673.75
 20
603.875
 30
0.0
 11
-673.75
 21
279.875
 31
0.0
  0
ARC
  5
514
100
AcDbEntity
  8
外形図
  6
CONTINUOUS
 62
     3
100
AcDbCircle
 10
472.82152
 20
595.011155
 30
0.0
 40
3.0
100
AcDbArc
 50
12.535957
 51
58.253634
  0
ARC
  5
515
100
AcDbEntity
  8
外形図
  6
CONTINUOUS
 62
     3
100
AcDbCircle
 10
467.702639
 20
597.188174
 30
0.0
 40
7.348473
100
AcDbArc
 50
24.301161
 51
65.500008
  0
ARC
  5
516
100
AcDbEntity
  8
外形図
  6
CONTINUOUS
 62
     3
100
AcDbCircle
 10
472.82152
 20
288.738845
 30
0.0
 40
3.0
100
AcDbArc
 50
301.746366
 51
347.464043
  0
ARC
  5
517
100
AcDbEntity
  8
外形図
  6
CONTINUOUS
 62
     3
100
AcDbCircle
 10
467.702639
 20
286.561826
 30
0.0
 40
7.348473
100
AcDbArc
 50
294.499992
 51
335.698839
  0
LINE
  5
518
100
AcDbEntity
  8
外形図
  6
CONTINUOUS
 62
     3
100
AcDbLine
 10
475.75
 20
288.087688
 30
0.0
 11
475.75
 21
595.662312
 31
0.0
  0
LINE
  5
519
100
AcDbEntity
  8
外形図
  6
CONTINUOUS
 62
     3
100
AcDbLine
 10
474.4
 20
283.537688
 30
0.0
 11
474.4
 21
600.212312
 31
0.0
  0
ARC
  5
51A
100
AcDbEntity
  8
外形図
  6
CONTINUOUS
 62
     3
100
AcDbCircle
 10
467.75
 20
638.875
 30
0.0
 40
3.0
100
AcDbArc
 50
0.0
 51
90.0
  0
ARC
  5
51B
100
AcDbEntity
  8
外形図
  6
CONTINUOUS
 62
     3
100
AcDbCircle
 10
467.75
 20
244.875
 30
0.0
 40
3.0
100
AcDbArc
 50
270.0
 51
0.0
  0
LINE
  5
51C
100
AcDbEntity
  8
外形図
  6
CONTINUOUS
 62
     3
100
AcDbLine
 10
470.75
 20
638.875
 30
0.0
 11
470.75
 21
244.875
 31
0.0
  0
ARC
  5
51D
100
AcDbEntity
  8
外形図
  6
CONTINUOUS
 62
     3
100
AcDbCircle
 10
228.67848
 20
595.011155
 30
0.0
 40
3.0
100
AcDbArc
 50
121.746366
 51
167.464043
  0
ARC
  5
51E
100
AcDbEntity
  8
外形図
  6
CONTINUOUS
 62
     3
100
AcDbCircle
 10
233.797361
 20
597.188174
 30
0.0
 40
7.348473
100
AcDbArc
 50
114.499992
 51
155.698839
  0
ARC
  5
51F
100
AcDbEntity
  8
外形図
  6
CONTINUOUS
 62
     3
100
AcDbCircle
 10
228.67848
 20
288.738845
 30
0.0
 40
3.0
100
AcDbArc
 50
192.535957
 51
238.253634
  0
ARC
  5
520
100
AcDbEntity
  8
外形図
  6
CONTINUOUS
 62
     3
100
AcDbCircle
 10
233.797361
 20
286.561826
 30
0.0
 40
7.348473
100
AcDbArc
 50
204.301161
 51
245.500008
  0
LINE
  5
521
100
AcDbEntity
  8
外形図
  6
CONTINUOUS
 62
     3
100
AcDbLine
 10
225.75
 20
288.087688
 30
0.0
 11
225.75
 21
595.662312
 31
0.0
  0
LINE
  5
522
100
AcDbEntity
  8
外形図
  6
CONTINUOUS
 62
     3
100
AcDbLine
 10
227.1
 20
283.537688
 30
0.0
 11
227.1
 21
600.212312
 31
0.0
  0
ARC
  5
523
100
AcDbEntity
  8
外形図
  6
CONTINUOUS
 62
     3
100
AcDbCircle
 10
233.75
 20
638.875
 30
0.0
 40
3.0
100
AcDbArc
 50
90.0
 51
180.0
  0
ARC
  5
524
100
AcDbEntity
  8
外形図
  6
CONTINUOUS
 62
     3
100
AcDbCircle
 10
233.75
 20
244.875
 30
0.0
 40
3.0
100
AcDbArc
 50
180.0
 51
270.0
  0
LINE
  5
525
100
AcDbEntity
  8
外形図
  6
CONTINUOUS
 62
     3
100
AcDbLine
 10
230.75
 20
638.875
 30
0.0
 11
230.75
 21
244.875
 31
0.0
  0
ARC
  5
526
100
AcDbEntity
  8
外形図
  6
CONTINUOUS
 62
     3
100
AcDbCircle
 10
281.75
 20
608.875
 30
0.0
 40
28.0
100
AcDbArc
 50
270.0
 51
306.869898
  0
ARC
  5
527
100
AcDbEntity
  8
外形図
  6
CONTINUOUS
 62
     3
100
AcDbCircle
 10
419.75
 20
608.875
 30
0.0
 40
28.0
100
AcDbArc
 50
233.130102
 51
270.0
  0
ARC
  5
528
100
AcDbEntity
  8
外形図
  6
CONTINUOUS
 62
     3
100
AcDbCircle
 10
350.75
 20
516.875
 30
0.0
 40
87.0
100
AcDbArc
 50
53.130102
 51
126.869898
  0
ARC
  5
529
100
AcDbEntity
  8
外形図
  6
CONTINUOUS
 62
     3
100
AcDbCircle
 10
281.75
 20
274.875
 30
0.0
 40
28.0
100
AcDbArc
 50
53.130102
 51
90.0
  0
ARC
  5
52A
100
AcDbEntity
  8
外形図
  6
CONTINUOUS
 62
     3
100
AcDbCircle
 10
350.75
 20
366.875
 30
0.0
 40
87.0
100
AcDbArc
 50
233.130102
 51
306.869898
  0
ARC
  5
52B
100
AcDbEntity
  8
外形図
  6
CONTINUOUS
 62
     3
100
AcDbCircle
 10
419.75
 20
274.875
 30
0.0
 40
28.0
100
AcDbArc
 50
90.0
 51
126.869898
  0
LINE
  5
52C
100
AcDbEntity
  8
外形図
  6
CONTINUOUS
 62
     3
100
AcDbLine
 10
281.75
 20
580.875
 30
0.0
 11
281.75
 21
302.875
 31
0.0
  0
LINE
  5
52D
100
AcDbEntity
  8
外形図
  6
CONTINUOUS
 62
     3
100
AcDbLine
 10
419.75
 20
580.875
 30
0.0
 11
419.75
 21
302.875
 31
0.0
  0
LINE
  5
52E
100
AcDbEntity
  8
外形図
  6
CONTINUOUS
 62
     3
100
AcDbLine
 10
298.55
 20
586.475
 30
0.0
 11
298.55
 21
297.275
 31
0.0
  0
LINE
  5
52F
100
AcDbEntity
  8
外形図
  6
CONTINUOUS
 62
     3
100
AcDbLine
 10
402.95
 20
586.475
 30
0.0
 11
402.95
 21
297.275
 31
0.0
  0
ARC
  5
530
100
AcDbEntity
  8
外形図
  6
CONTINUOUS
 62
     3
100
AcDbCircle
 10
1212.929869
 20
638.875
 30
0.0
 40
33.0
100
AcDbArc
 50
270.0
 51
306.194447
  0
ARC
  5
531
100
AcDbEntity
  8
外形図
  6
CONTINUOUS
 62
     3
100
AcDbCircle
 10
1347.570131
 20
638.875
 30
0.0
 40
33.0
100
AcDbArc
 50
233.805553
 51
270.0
  0
ARC
  5
532
100
AcDbEntity
  8
外形図
  6
CONTINUOUS
 62
     3
100
AcDbCircle
 10
1280.25
 20
546.875
 30
0.0
 40
81.0
100
AcDbArc
 50
53.805553
 51
126.194447
  0
ARC
  5
533
100
AcDbEntity
  8
外形図
  6
CONTINUOUS
 62
     3
100
AcDbCircle
 10
1212.929869
 20
244.875
 30
0.0
 40
33.0
100
AcDbArc
 50
53.805553
 51
90.0
  0
ARC
  5
534
100
AcDbEntity
  8
外形図
  6
CONTINUOUS
 62
     3
100
AcDbCircle
 10
1347.570131
 20
244.875
 30
0.0
 40
33.0
100
AcDbArc
 50
90.0
 51
126.194447
  0
ARC
  5
535
100
AcDbEntity
  8
外形図
  6
CONTINUOUS
 62
     3
100
AcDbCircle
 10
1280.25
 20
336.875
 30
0.0
 40
81.0
100
AcDbArc
 50
233.805553
 51
306.194447
  0
LINE
  5
536
100
AcDbEntity
  8
外形図
  6
CONTINUOUS
 62
     3
100
AcDbLine
 10
1212.929869
 20
605.875
 30
0.0
 11
1212.929869
 21
277.875
 31
0.0
  0
LINE
  5
537
100
AcDbEntity
  8
外形図
  6
CONTINUOUS
 62
     3
100
AcDbLine
 10
1232.417276
 20
612.243421
 30
0.0
 11
1232.417276
 21
271.506579
 31
0.0
  0
LINE
  5
538
100
AcDbEntity
  8
外形図
  6
CONTINUOUS
 62
     3
100
AcDbLine
 10
1328.082724
 20
612.243421
 30
0.0
 11
1328.082724
 21
271.506579
 31
0.0
  0
LINE
  5
539
100
AcDbEntity
  8
外形図
  6
CONTINUOUS
 62
     3
100
AcDbLine
 10
1347.570131
 20
605.875
 30
0.0
 11
1347.570131
 21
277.875
 31
0.0
  0
ARC
  5
53A
100
AcDbEntity
  8
外形図
  6
CONTINUOUS
 62
     3
100
AcDbCircle
 10
1158.17848
 20
619.511155
 30
0.0
 40
3.0
100
AcDbArc
 50
121.746366
 51
167.464043
  0
ARC
  5
53B
100
AcDbEntity
  8
外形図
  6
CONTINUOUS
 62
     3
100
AcDbCircle
 10
1163.297361
 20
621.688174
 30
0.0
 40
7.348473
100
AcDbArc
 50
114.499992
 51
155.698839
  0
ARC
  5
53C
100
AcDbEntity
  8
外形図
  6
CONTINUOUS
 62
     3
100
AcDbCircle
 10
1402.32152
 20
619.511155
 30
0.0
 40
3.0
100
AcDbArc
 50
12.535957
 51
58.253634
  0
ARC
  5
53D
100
AcDbEntity
  8
外形図
  6
CONTINUOUS
 62
     3
100
AcDbCircle
 10
1397.202639
 20
621.688174
 30
0.0
 40
7.348473
100
AcDbArc
 50
24.301161
 51
65.500008
  0
ARC
  5
53E
100
AcDbEntity
  8
外形図
  6
CONTINUOUS
 62
     3
100
AcDbCircle
 10
1158.17848
 20
264.238845
 30
0.0
 40
3.0
100
AcDbArc
 50
192.535957
 51
238.253634
  0
ARC
  5
53F
100
AcDbEntity
  8
外形図
  6
CONTINUOUS
 62
     3
100
AcDbCircle
 10
1163.297361
 20
262.061826
 30
0.0
 40
7.348473
100
AcDbArc
 50
204.301161
 51
245.500008
  0
LINE
  5
540
100
AcDbEntity
  8
外形図
  6
CONTINUOUS
 62
     3
100
AcDbLine
 10
1155.25
 20
263.587688
 30
0.0
 11
1155.25
 21
620.162312
 31
0.0
  0
LINE
  5
541
100
AcDbEntity
  8
外形図
  6
CONTINUOUS
 62
     3
100
AcDbLine
 10
1156.6
 20
259.037688
 30
0.0
 11
1156.6
 21
624.712312
 31
0.0
  0
ARC
  5
542
100
AcDbEntity
  8
外形図
  6
CONTINUOUS
 62
     3
100
AcDbCircle
 10
1402.32152
 20
264.238845
 30
0.0
 40
3.0
100
AcDbArc
 50
301.746366
 51
347.464043
  0
ARC
  5
543
100
AcDbEntity
  8
外形図
  6
CONTINUOUS
 62
     3
100
AcDbCircle
 10
1397.202639
 20
262.061826
 30
0.0
 40
7.348473
100
AcDbArc
 50
294.499992
 51
335.698839
  0
LINE
  5
544
100
AcDbEntity
  8
外形図
  6
CONTINUOUS
 62
     3
100
AcDbLine
 10
1405.25
 20
263.587688
 30
0.0
 11
1405.25
 21
620.162312
 31
0.0
  0
LINE
  5
545
100
AcDbEntity
  8
外形図
  6
CONTINUOUS
 62
     3
100
AcDbLine
 10
1403.9
 20
259.037688
 30
0.0
 11
1403.9
 21
624.712312
 31
0.0
  0
LINE
  5
546
100
AcDbEntity
  8
外形図
  6
CONTINUOUS
 62
     3
100
AcDbLine
 10
-808.15
 20
1743.5
 30
0.0
 11
-792.475348
 21
1743.5
 31
0.0
  0
LINE
  5
547
100
AcDbEntity
  8
外形図
  6
CONTINUOUS
 62
     3
100
AcDbLine
 10
-808.15
 20
1686.5
 30
0.0
 11
-792.475348
 21
1686.5
 31
0.0
  0
POLYLINE
  5
548
100
AcDbEntity
  8
外形図
  6
CONTINUOUS
 62
     3
100
AcDb2dPolyline
 66
     1
 10
0.0
 20
0.0
 30
0.0
 70
   128
  0
VERTEX
  5
549
100
AcDbEntity
  8
外形図
  6
CONTINUOUS
 62
     3
100
AcDbVertex
100
AcDb2dVertex
 10
-810.55
 20
1780.1
 30
0.0
  0
VERTEX
  5
54A
100
AcDbEntity
  8
外形図
  6
CONTINUOUS
 62
     3
100
AcDbVertex
100
AcDb2dVertex
 10
-808.8
 20
1779.45
 30
0.0
  0
VERTEX
  5
54B
100
AcDbEntity
  8
外形図
  6
CONTINUOUS
 62
     3
100
AcDbVertex
100
AcDb2dVertex
 10
-808.15
 20
1777.7
 30
0.0
  0
SEQEND
  5
54C
100
AcDbEntity
  8
外形図
  6
CONTINUOUS
 62
     3
  0
ARC
  5
54D
100
AcDbEntity
  8
外形図
  6
CONTINUOUS
 62
     3
100
AcDbCircle
 10
-813.554263
 20
1779.5
 30
0.0
 40
3.0
100
AcDbArc
 50
22.988717
 51
90.0
  0
LINE
  5
54E
100
AcDbEntity
  8
外形図
  6
CONTINUOUS
 62
     3
100
AcDbLine
 10
-810.792518
 20
1780.67165
 30
0.0
 11
-810.55
 21
1780.1
 31
0.0
  0
LINE
  5
54F
100
AcDbEntity
  8
外形図
  6
CONTINUOUS
 62
     3
100
AcDbLine
 10
-819.15
 20
1782.5
 30
0.0
 11
-813.554263
 21
1782.5
 31
0.0
  0
POLYLINE
  5
550
100
AcDbEntity
  8
外形図
  6
CONTINUOUS
 62
     3
100
AcDb2dPolyline
 66
     1
 10
0.0
 20
0.0
 30
0.0
 70
   128
  0
VERTEX
  5
551
100
AcDbEntity
  8
外形図
  6
CONTINUOUS
 62
     3
100
AcDbVertex
100
AcDb2dVertex
 10
-810.55
 20
1649.9
 30
0.0
  0
VERTEX
  5
552
100
AcDbEntity
  8
外形図
  6
CONTINUOUS
 62
     3
100
AcDbVertex
100
AcDb2dVertex
 10
-808.8
 20
1650.55
 30
0.0
  0
VERTEX
  5
553
100
AcDbEntity
  8
外形図
  6
CONTINUOUS
 62
     3
100
AcDbVertex
100
AcDb2dVertex
 10
-808.15
 20
1652.3
 30
0.0
  0
SEQEND
  5
554
100
AcDbEntity
  8
外形図
  6
CONTINUOUS
 62
     3
  0
ARC
  5
555
100
AcDbEntity
  8
外形図
  6
CONTINUOUS
 62
     3
100
AcDbCircle
 10
-813.554263
 20
1650.5
 30
0.0
 40
3.0
100
AcDbArc
 50
270.0
 51
337.011283
  0
LINE
  5
556
100
AcDbEntity
  8
外形図
  6
CONTINUOUS
 62
     3
100
AcDbLine
 10
-810.792518
 20
1649.32835
 30
0.0
 11
-810.55
 21
1649.9
 31
0.0
  0
LINE
  5
557
100
AcDbEntity
  8
外形図
  6
CONTINUOUS
 62
     3
100
AcDbLine
 10
-819.15
 20
1647.5
 30
0.0
 11
-813.554263
 21
1647.5
 31
0.0
  0
LINE
  5
558
100
AcDbEntity
  8
外形図
  6
CONTINUOUS
 62
     3
100
AcDbLine
 10
-808.15
 20
1652.3
 30
0.0
 11
-808.15
 21
1777.7
 31
0.0
  0
LINE
  5
559
100
AcDbEntity
  8
外形図
  6
CONTINUOUS
 62
     3
100
AcDbLine
 10
-721.15
 20
1743.5
 30
0.0
 11
-736.824652
 21
1743.5
 31
0.0
  0
LINE
  5
55A
100
AcDbEntity
  8
外形図
  6
CONTINUOUS
 62
     3
100
AcDbLine
 10
-721.15
 20
1686.5
 30
0.0
 11
-736.824652
 21
1686.5
 31
0.0
  0
LINE
  5
55B
100
AcDbEntity
  8
外形図
  6
CONTINUOUS
 62
     3
100
AcDbLine
 10
-710.15
 20
1782.5
 30
0.0
 11
-715.745737
 21
1782.5
 31
0.0
  0
LINE
  5
55C
100
AcDbEntity
  8
外形図
  6
CONTINUOUS
 62
     3
100
AcDbLine
 10
-718.507482
 20
1780.67165
 30
0.0
 11
-718.75
 21
1780.1
 31
0.0
  0
ARC
  5
55D
100
AcDbEntity
  8
外形図
  6
CONTINUOUS
 62
     3
100
AcDbCircle
 10
-715.745737
 20
1779.5
 30
0.0
 40
3.0
100
AcDbArc
 50
90.0
 51
157.011283
  0
POLYLINE
  5
55E
100
AcDbEntity
  8
外形図
  6
CONTINUOUS
 62
     3
100
AcDb2dPolyline
 66
     1
 10
0.0
 20
0.0
 30
0.0
 70
   128
  0
VERTEX
  5
55F
100
AcDbEntity
  8
外形図
  6
CONTINUOUS
 62
     3
100
AcDbVertex
100
AcDb2dVertex
 10
-718.75
 20
1780.1
 30
0.0
  0
VERTEX
  5
560
100
AcDbEntity
  8
外形図
  6
CONTINUOUS
 62
     3
100
AcDbVertex
100
AcDb2dVertex
 10
-720.5
 20
1779.45
 30
0.0
  0
VERTEX
  5
561
100
AcDbEntity
  8
外形図
  6
CONTINUOUS
 62
     3
100
AcDbVertex
100
AcDb2dVertex
 10
-721.15
 20
1777.7
 30
0.0
  0
SEQEND
  5
562
100
AcDbEntity
  8
外形図
  6
CONTINUOUS
 62
     3
  0
LINE
  5
563
100
AcDbEntity
  8
外形図
  6
CONTINUOUS
 62
     3
100
AcDbLine
 10
-710.15
 20
1647.5
 30
0.0
 11
-715.745737
 21
1647.5
 31
0.0
  0
LINE
  5
564
100
AcDbEntity
  8
外形図
  6
CONTINUOUS
 62
     3
100
AcDbLine
 10
-718.507482
 20
1649.32835
 30
0.0
 11
-718.75
 21
1649.9
 31
0.0
  0
ARC
  5
565
100
AcDbEntity
  8
外形図
  6
CONTINUOUS
 62
     3
100
AcDbCircle
 10
-715.745737
 20
1650.5
 30
0.0
 40
3.0
100
AcDbArc
 50
202.988717
 51
270.0
  0
POLYLINE
  5
566
100
AcDbEntity
  8
外形図
  6
CONTINUOUS
 62
     3
100
AcDb2dPolyline
 66
     1
 10
0.0
 20
0.0
 30
0.0
 70
   128
  0
VERTEX
  5
567
100
AcDbEntity
  8
外形図
  6
CONTINUOUS
 62
     3
100
AcDbVertex
100
AcDb2dVertex
 10
-718.75
 20
1649.9
 30
0.0
  0
VERTEX
  5
568
100
AcDbEntity
  8
外形図
  6
CONTINUOUS
 62
     3
100
AcDbVertex
100
AcDb2dVertex
 10
-720.5
 20
1650.55
 30
0.0
  0
VERTEX
  5
569
100
AcDbEntity
  8
外形図
  6
CONTINUOUS
 62
     3
100
AcDbVertex
100
AcDb2dVertex
 10
-721.15
 20
1652.3
 30
0.0
  0
SEQEND
  5
56A
100
AcDbEntity
  8
外形図
  6
CONTINUOUS
 62
     3
  0
LINE
  5
56B
100
AcDbEntity
  8
外形図
  6
CONTINUOUS
 62
     3
100
AcDbLine
 10
-721.15
 20
1652.3
 30
0.0
 11
-721.15
 21
1777.7
 31
0.0
  0
POLYLINE
  5
56C
100
AcDbEntity
  8
外形図
  6
CONTINUOUS
 62
     3
100
AcDb2dPolyline
 66
     1
 10
0.0
 20
0.0
 30
0.0
 70
   128
  0
VERTEX
  5
56D
100
AcDbEntity
  8
外形図
  6
CONTINUOUS
 62
     3
100
AcDbVertex
100
AcDb2dVertex
 10
-252.85
 20
1782.6
 30
0.0
  0
VERTEX
  5
56E
100
AcDbEntity
  8
外形図
  6
CONTINUOUS
 62
     3
100
AcDbVertex
100
AcDb2dVertex
 10
-251.1
 20
1781.95
 30
0.0
  0
VERTEX
  5
56F
100
AcDbEntity
  8
外形図
  6
CONTINUOUS
 62
     3
100
AcDbVertex
100
AcDb2dVertex
 10
-250.45
 20
1780.2
 30
0.0
  0
SEQEND
  5
570
100
AcDbEntity
  8
外形図
  6
CONTINUOUS
 62
     3
  0
ARC
  5
571
100
AcDbEntity
  8
外形図
  6
CONTINUOUS
 62
     3
100
AcDbCircle
 10
-255.854263
 20
1782.0
 30
0.0
 40
3.0
100
AcDbArc
 50
22.988717
 51
90.0
  0
LINE
  5
572
100
AcDbEntity
  8
外形図
  6
CONTINUOUS
 62
     3
100
AcDbLine
 10
-253.092518
 20
1783.17165
 30
0.0
 11
-252.85
 21
1782.6
 31
0.0
  0
POLYLINE
  5
573
100
AcDbEntity
  8
外形図
  6
CONTINUOUS
 62
     3
100
AcDb2dPolyline
 66
     1
 10
0.0
 20
0.0
 30
0.0
 70
   128
  0
VERTEX
  5
574
100
AcDbEntity
  8
外形図
  6
CONTINUOUS
 62
     3
100
AcDbVertex
100
AcDb2dVertex
 10
-252.85
 20
1647.4
 30
0.0
  0
VERTEX
  5
575
100
AcDbEntity
  8
外形図
  6
CONTINUOUS
 62
     3
100
AcDbVertex
100
AcDb2dVertex
 10
-251.1
 20
1648.05
 30
0.0
  0
VERTEX
  5
576
100
AcDbEntity
  8
外形図
  6
CONTINUOUS
 62
     3
100
AcDbVertex
100
AcDb2dVertex
 10
-250.45
 20
1649.8
 30
0.0
  0
SEQEND
  5
577
100
AcDbEntity
  8
外形図
  6
CONTINUOUS
 62
     3
  0
ARC
  5
578
100
AcDbEntity
  8
外形図
  6
CONTINUOUS
 62
     3
100
AcDbCircle
 10
-255.854263
 20
1648.0
 30
0.0
 40
3.0
100
AcDbArc
 50
270.0
 51
337.011283
  0
LINE
  5
579
100
AcDbEntity
  8
外形図
  6
CONTINUOUS
 62
     3
100
AcDbLine
 10
-253.092518
 20
1646.82835
 30
0.0
 11
-252.85
 21
1647.4
 31
0.0
  0
LINE
  5
57A
100
AcDbEntity
  8
外形図
  6
CONTINUOUS
 62
     3
100
AcDbLine
 10
-250.45
 20
1649.8
 30
0.0
 11
-250.45
 21
1780.2
 31
0.0
  0
LINE
  5
57B
100
AcDbEntity
  8
外形図
  6
CONTINUOUS
 62
     3
100
AcDbLine
 10
-250.45
 20
1743.5
 30
0.0
 11
-234.775348
 21
1743.5
 31
0.0
  0
LINE
  5
57C
100
AcDbEntity
  8
外形図
  6
CONTINUOUS
 62
     3
100
AcDbLine
 10
-250.45
 20
1686.5
 30
0.0
 11
-234.775348
 21
1686.5
 31
0.0
  0
LINE
  5
57D
100
AcDbEntity
  8
外形図
  6
CONTINUOUS
 62
     3
100
AcDbLine
 10
-261.45
 20
1645.0
 30
0.0
 11
-255.854263
 21
1645.0
 31
0.0
  0
LINE
  5
57E
100
AcDbEntity
  8
外形図
  6
CONTINUOUS
 62
     3
100
AcDbLine
 10
-261.45
 20
1785.0
 30
0.0
 11
-255.854263
 21
1785.0
 31
0.0
  0
LINE
  5
57F
100
AcDbEntity
  8
外形図
  6
CONTINUOUS
 62
     3
100
AcDbLine
 10
-152.45
 20
1785.0
 30
0.0
 11
-158.045737
 21
1785.0
 31
0.0
  0
LINE
  5
580
100
AcDbEntity
  8
外形図
  6
CONTINUOUS
 62
     3
100
AcDbLine
 10
-160.807482
 20
1783.17165
 30
0.0
 11
-161.05
 21
1782.6
 31
0.0
  0
ARC
  5
581
100
AcDbEntity
  8
外形図
  6
CONTINUOUS
 62
     3
100
AcDbCircle
 10
-158.045737
 20
1782.0
 30
0.0
 40
3.0
100
AcDbArc
 50
90.0
 51
157.011283
  0
POLYLINE
  5
582
100
AcDbEntity
  8
外形図
  6
CONTINUOUS
 62
     3
100
AcDb2dPolyline
 66
     1
 10
0.0
 20
0.0
 30
0.0
 70
   128
  0
VERTEX
  5
583
100
AcDbEntity
  8
外形図
  6
CONTINUOUS
 62
     3
100
AcDbVertex
100
AcDb2dVertex
 10
-161.05
 20
1782.6
 30
0.0
  0
VERTEX
  5
584
100
AcDbEntity
  8
外形図
  6
CONTINUOUS
 62
     3
100
AcDbVertex
100
AcDb2dVertex
 10
-162.8
 20
1781.95
 30
0.0
  0
VERTEX
  5
585
100
AcDbEntity
  8
外形図
  6
CONTINUOUS
 62
     3
100
AcDbVertex
100
AcDb2dVertex
 10
-163.45
 20
1780.2
 30
0.0
  0
SEQEND
  5
586
100
AcDbEntity
  8
外形図
  6
CONTINUOUS
 62
     3
  0
LINE
  5
587
100
AcDbEntity
  8
外形図
  6
CONTINUOUS
 62
     3
100
AcDbLine
 10
-152.45
 20
1645.0
 30
0.0
 11
-158.045737
 21
1645.0
 31
0.0
  0
LINE
  5
588
100
AcDbEntity
  8
外形図
  6
CONTINUOUS
 62
     3
100
AcDbLine
 10
-160.807482
 20
1646.82835
 30
0.0
 11
-161.05
 21
1647.4
 31
0.0
  0
ARC
  5
589
100
AcDbEntity
  8
外形図
  6
CONTINUOUS
 62
     3
100
AcDbCircle
 10
-158.045737
 20
1648.0
 30
0.0
 40
3.0
100
AcDbArc
 50
202.988717
 51
270.0
  0
POLYLINE
  5
58A
100
AcDbEntity
  8
外形図
  6
CONTINUOUS
 62
     3
100
AcDb2dPolyline
 66
     1
 10
0.0
 20
0.0
 30
0.0
 70
   128
  0
VERTEX
  5
58B
100
AcDbEntity
  8
外形図
  6
CONTINUOUS
 62
     3
100
AcDbVertex
100
AcDb2dVertex
 10
-161.05
 20
1647.4
 30
0.0
  0
VERTEX
  5
58C
100
AcDbEntity
  8
外形図
  6
CONTINUOUS
 62
     3
100
AcDbVertex
100
AcDb2dVertex
 10
-162.8
 20
1648.05
 30
0.0
  0
VERTEX
  5
58D
100
AcDbEntity
  8
外形図
  6
CONTINUOUS
 62
     3
100
AcDbVertex
100
AcDb2dVertex
 10
-163.45
 20
1649.8
 30
0.0
  0
SEQEND
  5
58E
100
AcDbEntity
  8
外形図
  6
CONTINUOUS
 62
     3
  0
LINE
  5
58F
100
AcDbEntity
  8
外形図
  6
CONTINUOUS
 62
     3
100
AcDbLine
 10
-163.45
 20
1649.8
 30
0.0
 11
-163.45
 21
1780.2
 31
0.0
  0
LINE
  5
590
100
AcDbEntity
  8
外形図
  6
CONTINUOUS
 62
     3
100
AcDbLine
 10
-163.45
 20
1743.5
 30
0.0
 11
-179.124652
 21
1743.5
 31
0.0
  0
LINE
  5
591
100
AcDbEntity
  8
外形図
  6
CONTINUOUS
 62
     3
100
AcDbLine
 10
-163.45
 20
1686.5
 30
0.0
 11
-179.124652
 21
1686.5
 31
0.0
  0
POLYLINE
  5
592
100
AcDbEntity
  8
外形図
  6
CONTINUOUS
 62
     3
100
AcDb2dPolyline
 66
     1
 10
0.0
 20
0.0
 30
0.0
 70
   128
  0
VERTEX
  5
593
100
AcDbEntity
  8
外形図
  6
CONTINUOUS
 62
     3
100
AcDbVertex
100
AcDb2dVertex
 10
304.85
 20
1790.1
 30
0.0
  0
VERTEX
  5
594
100
AcDbEntity
  8
外形図
  6
CONTINUOUS
 62
     3
100
AcDbVertex
100
AcDb2dVertex
 10
306.6
 20
1789.45
 30
0.0
  0
VERTEX
  5
595
100
AcDbEntity
  8
外形図
  6
CONTINUOUS
 62
     3
100
AcDbVertex
100
AcDb2dVertex
 10
307.25
 20
1787.7
 30
0.0
  0
SEQEND
  5
596
100
AcDbEntity
  8
外形図
  6
CONTINUOUS
 62
     3
  0
ARC
  5
597
100
AcDbEntity
  8
外形図
  6
CONTINUOUS
 62
     3
100
AcDbCircle
 10
301.845737
 20
1789.5
 30
0.0
 40
3.0
100
AcDbArc
 50
22.988717
 51
90.0
  0
LINE
  5
598
100
AcDbEntity
  8
外形図
  6
CONTINUOUS
 62
     3
100
AcDbLine
 10
304.607482
 20
1790.67165
 30
0.0
 11
304.85
 21
1790.1
 31
0.0
  0
LINE
  5
599
100
AcDbEntity
  8
外形図
  6
CONTINUOUS
 62
     3
100
AcDbLine
 10
296.25
 20
1792.5
 30
0.0
 11
301.845737
 21
1792.5
 31
0.0
  0
POLYLINE
  5
59A
100
AcDbEntity
  8
外形図
  6
CONTINUOUS
 62
     3
100
AcDb2dPolyline
 66
     1
 10
0.0
 20
0.0
 30
0.0
 70
   128
  0
VERTEX
  5
59B
100
AcDbEntity
  8
外形図
  6
CONTINUOUS
 62
     3
100
AcDbVertex
100
AcDb2dVertex
 10
304.85
 20
1639.9
 30
0.0
  0
VERTEX
  5
59C
100
AcDbEntity
  8
外形図
  6
CONTINUOUS
 62
     3
100
AcDbVertex
100
AcDb2dVertex
 10
306.6
 20
1640.55
 30
0.0
  0
VERTEX
  5
59D
100
AcDbEntity
  8
外形図
  6
CONTINUOUS
 62
     3
100
AcDbVertex
100
AcDb2dVertex
 10
307.25
 20
1642.3
 30
0.0
  0
SEQEND
  5
59E
100
AcDbEntity
  8
外形図
  6
CONTINUOUS
 62
     3
  0
ARC
  5
59F
100
AcDbEntity
  8
外形図
  6
CONTINUOUS
 62
     3
100
AcDbCircle
 10
301.845737
 20
1640.5
 30
0.0
 40
3.0
100
AcDbArc
 50
270.0
 51
337.011283
  0
LINE
  5
5A0
100
AcDbEntity
  8
外形図
  6
CONTINUOUS
 62
     3
100
AcDbLine
 10
304.607482
 20
1639.32835
 30
0.0
 11
304.85
 21
1639.9
 31
0.0
  0
LINE
  5
5A1
100
AcDbEntity
  8
外形図
  6
CONTINUOUS
 62
     3
100
AcDbLine
 10
296.25
 20
1637.5
 30
0.0
 11
301.845737
 21
1637.5
 31
0.0
  0
LINE
  5
5A2
100
AcDbEntity
  8
外形図
  6
CONTINUOUS
 62
     3
100
AcDbLine
 10
307.25
 20
1642.3
 30
0.0
 11
307.25
 21
1787.7
 31
0.0
  0
ARC
  5
5A3
100
AcDbEntity
  8
外形図
  6
CONTINUOUS
 62
     3
100
AcDbCircle
 10
308.965073
 20
1778.543878
 30
0.0
 40
28.096273
100
AcDbArc
 50
266.500334
 51
300.756166
  0
ARC
  5
5A4
100
AcDbEntity
  8
外形図
  6
CONTINUOUS
 62
     3
100
AcDbCircle
 10
308.965073
 20
1651.456122
 30
0.0
 40
28.096273
100
AcDbArc
 50
59.243834
 51
93.499666
  0
LINE
  5
5A5
100
AcDbEntity
  8
外形図
  6
CONTINUOUS
 62
     3
100
AcDbLine
 10
405.25
 20
1792.5
 30
0.0
 11
399.654263
 21
1792.5
 31
0.0
  0
LINE
  5
5A6
100
AcDbEntity
  8
外形図
  6
CONTINUOUS
 62
     3
100
AcDbLine
 10
396.892518
 20
1790.67165
 30
0.0
 11
396.65
 21
1790.1
 31
0.0
  0
ARC
  5
5A7
100
AcDbEntity
  8
外形図
  6
CONTINUOUS
 62
     3
100
AcDbCircle
 10
399.654263
 20
1789.5
 30
0.0
 40
3.0
100
AcDbArc
 50
90.0
 51
157.011283
  0
POLYLINE
  5
5A8
100
AcDbEntity
  8
外形図
  6
CONTINUOUS
 62
     3
100
AcDb2dPolyline
 66
     1
 10
0.0
 20
0.0
 30
0.0
 70
   128
  0
VERTEX
  5
5A9
100
AcDbEntity
  8
外形図
  6
CONTINUOUS
 62
     3
100
AcDbVertex
100
AcDb2dVertex
 10
396.65
 20
1790.1
 30
0.0
  0
VERTEX
  5
5AA
100
AcDbEntity
  8
外形図
  6
CONTINUOUS
 62
     3
100
AcDbVertex
100
AcDb2dVertex
 10
394.9
 20
1789.45
 30
0.0
  0
VERTEX
  5
5AB
100
AcDbEntity
  8
外形図
  6
CONTINUOUS
 62
     3
100
AcDbVertex
100
AcDb2dVertex
 10
394.25
 20
1787.7
 30
0.0
  0
SEQEND
  5
5AC
100
AcDbEntity
  8
外形図
  6
CONTINUOUS
 62
     3
  0
LINE
  5
5AD
100
AcDbEntity
  8
外形図
  6
CONTINUOUS
 62
     3
100
AcDbLine
 10
405.25
 20
1637.5
 30
0.0
 11
399.654263
 21
1637.5
 31
0.0
  0
LINE
  5
5AE
100
AcDbEntity
  8
外形図
  6
CONTINUOUS
 62
     3
100
AcDbLine
 10
396.892518
 20
1639.32835
 30
0.0
 11
396.65
 21
1639.9
 31
0.0
  0
ARC
  5
5AF
100
AcDbEntity
  8
外形図
  6
CONTINUOUS
 62
     3
100
AcDbCircle
 10
399.654263
 20
1640.5
 30
0.0
 40
3.0
100
AcDbArc
 50
202.988717
 51
270.0
  0
POLYLINE
  5
5B0
100
AcDbEntity
  8
外形図
  6
CONTINUOUS
 62
     3
100
AcDb2dPolyline
 66
     1
 10
0.0
 20
0.0
 30
0.0
 70
   128
  0
VERTEX
  5
5B1
100
AcDbEntity
  8
外形図
  6
CONTINUOUS
 62
     3
100
AcDbVertex
100
AcDb2dVertex
 10
396.65
 20
1639.9
 30
0.0
  0
VERTEX
  5
5B2
100
AcDbEntity
  8
外形図
  6
CONTINUOUS
 62
     3
100
AcDbVertex
100
AcDb2dVertex
 10
394.9
 20
1640.55
 30
0.0
  0
VERTEX
  5
5B3
100
AcDbEntity
  8
外形図
  6
CONTINUOUS
 62
     3
100
AcDbVertex
100
AcDb2dVertex
 10
394.25
 20
1642.3
 30
0.0
  0
SEQEND
  5
5B4
100
AcDbEntity
  8
外形図
  6
CONTINUOUS
 62
     3
  0
LINE
  5
5B5
100
AcDbEntity
  8
外形図
  6
CONTINUOUS
 62
     3
100
AcDbLine
 10
394.25
 20
1642.3
 30
0.0
 11
394.25
 21
1787.7
 31
0.0
  0
ARC
  5
5B6
100
AcDbEntity
  8
外形図
  6
CONTINUOUS
 62
     3
100
AcDbCircle
 10
392.534927
 20
1778.543878
 30
0.0
 40
28.096273
100
AcDbArc
 50
239.243834
 51
273.499666
  0
ARC
  5
5B7
100
AcDbEntity
  8
外形図
  6
CONTINUOUS
 62
     3
100
AcDbCircle
 10
392.534927
 20
1651.456122
 30
0.0
 40
28.096273
100
AcDbArc
 50
86.500334
 51
120.756166
  0
POLYLINE
  5
5B8
100
AcDbEntity
  8
外形図
  6
CONTINUOUS
 62
     3
100
AcDb2dPolyline
 66
     1
 10
0.0
 20
0.0
 30
0.0
 70
   128
  0
VERTEX
  5
5B9
100
AcDbEntity
  8
外形図
  6
CONTINUOUS
 62
     3
100
AcDbVertex
100
AcDb2dVertex
 10
863.55
 20
1805.1
 30
0.0
  0
VERTEX
  5
5BA
100
AcDbEntity
  8
外形図
  6
CONTINUOUS
 62
     3
100
AcDbVertex
100
AcDb2dVertex
 10
865.3
 20
1804.45
 30
0.0
  0
VERTEX
  5
5BB
100
AcDbEntity
  8
外形図
  6
CONTINUOUS
 62
     3
100
AcDbVertex
100
AcDb2dVertex
 10
865.95
 20
1802.7
 30
0.0
  0
SEQEND
  5
5BC
100
AcDbEntity
  8
外形図
  6
CONTINUOUS
 62
     3
  0
ARC
  5
5BD
100
AcDbEntity
  8
外形図
  6
CONTINUOUS
 62
     3
100
AcDbCircle
 10
860.545737
 20
1804.5
 30
0.0
 40
3.0
100
AcDbArc
 50
22.988717
 51
90.0
  0
LINE
  5
5BE
100
AcDbEntity
  8
外形図
  6
CONTINUOUS
 62
     3
100
AcDbLine
 10
863.307482
 20
1805.67165
 30
0.0
 11
863.55
 21
1805.1
 31
0.0
  0
LINE
  5
5BF
100
AcDbEntity
  8
外形図
  6
CONTINUOUS
 62
     3
100
AcDbLine
 10
853.95
 20
1807.5
 30
0.0
 11
860.545737
 21
1807.5
 31
0.0
  0
LINE
  5
5C0
100
AcDbEntity
  8
外形図
  6
CONTINUOUS
 62
     3
100
AcDbLine
 10
865.95
 20
1763.0
 30
0.0
 11
870.487749
 21
1763.0
 31
0.0
  0
POLYLINE
  5
5C1
100
AcDbEntity
  8
外形図
  6
CONTINUOUS
 62
     3
100
AcDb2dPolyline
 66
     1
 10
0.0
 20
0.0
 30
0.0
 70
   128
  0
VERTEX
  5
5C2
100
AcDbEntity
  8
外形図
  6
CONTINUOUS
 62
     3
100
AcDbVertex
100
AcDb2dVertex
 10
863.55
 20
1634.9
 30
0.0
  0
VERTEX
  5
5C3
100
AcDbEntity
  8
外形図
  6
CONTINUOUS
 62
     3
100
AcDbVertex
100
AcDb2dVertex
 10
865.3
 20
1635.55
 30
0.0
  0
VERTEX
  5
5C4
100
AcDbEntity
  8
外形図
  6
CONTINUOUS
 62
     3
100
AcDbVertex
100
AcDb2dVertex
 10
865.95
 20
1637.3
 30
0.0
  0
SEQEND
  5
5C5
100
AcDbEntity
  8
外形図
  6
CONTINUOUS
 62
     3
  0
ARC
  5
5C6
100
AcDbEntity
  8
外形図
  6
CONTINUOUS
 62
     3
100
AcDbCircle
 10
860.545737
 20
1635.5
 30
0.0
 40
3.0
100
AcDbArc
 50
270.0
 51
337.011283
  0
LINE
  5
5C7
100
AcDbEntity
  8
外形図
  6
CONTINUOUS
 62
     3
100
AcDbLine
 10
863.307482
 20
1634.32835
 30
0.0
 11
863.55
 21
1634.9
 31
0.0
  0
LINE
  5
5C8
100
AcDbEntity
  8
外形図
  6
CONTINUOUS
 62
     3
100
AcDbLine
 10
853.95
 20
1632.5
 30
0.0
 11
860.545737
 21
1632.5
 31
0.0
  0
LINE
  5
5C9
100
AcDbEntity
  8
外形図
  6
CONTINUOUS
 62
     3
100
AcDbLine
 10
865.95
 20
1677.0
 30
0.0
 11
870.487749
 21
1677.0
 31
0.0
  0
LINE
  5
5CA
100
AcDbEntity
  8
外形図
  6
CONTINUOUS
 62
     3
100
AcDbLine
 10
865.95
 20
1637.3
 30
0.0
 11
865.95
 21
1802.7
 31
0.0
  0
LINE
  5
5CB
100
AcDbEntity
  8
外形図
  6
CONTINUOUS
 62
     3
100
AcDbLine
 10
962.95
 20
1807.5
 30
0.0
 11
956.354263
 21
1807.5
 31
0.0
  0
LINE
  5
5CC
100
AcDbEntity
  8
外形図
  6
CONTINUOUS
 62
     3
100
AcDbLine
 10
953.592518
 20
1805.67165
 30
0.0
 11
953.35
 21
1805.1
 31
0.0
  0
ARC
  5
5CD
100
AcDbEntity
  8
外形図
  6
CONTINUOUS
 62
     3
100
AcDbCircle
 10
956.354263
 20
1804.5
 30
0.0
 40
3.0
100
AcDbArc
 50
90.0
 51
157.011283
  0
POLYLINE
  5
5CE
100
AcDbEntity
  8
外形図
  6
CONTINUOUS
 62
     3
100
AcDb2dPolyline
 66
     1
 10
0.0
 20
0.0
 30
0.0
 70
   128
  0
VERTEX
  5
5CF
100
AcDbEntity
  8
外形図
  6
CONTINUOUS
 62
     3
100
AcDbVertex
100
AcDb2dVertex
 10
953.35
 20
1805.1
 30
0.0
  0
VERTEX
  5
5D0
100
AcDbEntity
  8
外形図
  6
CONTINUOUS
 62
     3
100
AcDbVertex
100
AcDb2dVertex
 10
951.6
 20
1804.45
 30
0.0
  0
VERTEX
  5
5D1
100
AcDbEntity
  8
外形図
  6
CONTINUOUS
 62
     3
100
AcDbVertex
100
AcDb2dVertex
 10
950.95
 20
1802.7
 30
0.0
  0
SEQEND
  5
5D2
100
AcDbEntity
  8
外形図
  6
CONTINUOUS
 62
     3
  0
LINE
  5
5D3
100
AcDbEntity
  8
外形図
  6
CONTINUOUS
 62
     3
100
AcDbLine
 10
950.95
 20
1763.0
 30
0.0
 11
946.412251
 21
1763.0
 31
0.0
  0
LINE
  5
5D4
100
AcDbEntity
  8
外形図
  6
CONTINUOUS
 62
     3
100
AcDbLine
 10
962.95
 20
1632.5
 30
0.0
 11
956.354263
 21
1632.5
 31
0.0
  0
LINE
  5
5D5
100
AcDbEntity
  8
外形図
  6
CONTINUOUS
 62
     3
100
AcDbLine
 10
953.592518
 20
1634.32835
 30
0.0
 11
953.35
 21
1634.9
 31
0.0
  0
ARC
  5
5D6
100
AcDbEntity
  8
外形図
  6
CONTINUOUS
 62
     3
100
AcDbCircle
 10
956.354263
 20
1635.5
 30
0.0
 40
3.0
100
AcDbArc
 50
202.988717
 51
270.0
  0
POLYLINE
  5
5D7
100
AcDbEntity
  8
外形図
  6
CONTINUOUS
 62
     3
100
AcDb2dPolyline
 66
     1
 10
0.0
 20
0.0
 30
0.0
 70
   128
  0
VERTEX
  5
5D8
100
AcDbEntity
  8
外形図
  6
CONTINUOUS
 62
     3
100
AcDbVertex
100
AcDb2dVertex
 10
953.35
 20
1634.9
 30
0.0
  0
VERTEX
  5
5D9
100
AcDbEntity
  8
外形図
  6
CONTINUOUS
 62
     3
100
AcDbVertex
100
AcDb2dVertex
 10
951.6
 20
1635.55
 30
0.0
  0
VERTEX
  5
5DA
100
AcDbEntity
  8
外形図
  6
CONTINUOUS
 62
     3
100
AcDbVertex
100
AcDb2dVertex
 10
950.95
 20
1637.3
 30
0.0
  0
SEQEND
  5
5DB
100
AcDbEntity
  8
外形図
  6
CONTINUOUS
 62
     3
  0
LINE
  5
5DC
100
AcDbEntity
  8
外形図
  6
CONTINUOUS
 62
     3
100
AcDbLine
 10
950.95
 20
1677.0
 30
0.0
 11
946.412251
 21
1677.0
 31
0.0
  0
LINE
  5
5DD
100
AcDbEntity
  8
外形図
  6
CONTINUOUS
 62
     3
100
AcDbLine
 10
950.95
 20
1637.3
 30
0.0
 11
950.95
 21
1802.7
 31
0.0
  0
POLYLINE
  5
5DE
100
AcDbEntity
  8
外形図
  6
CONTINUOUS
 62
     3
100
AcDb2dPolyline
 66
     1
 10
0.0
 20
0.0
 30
0.0
 70
   128
  0
VERTEX
  5
5DF
100
AcDbEntity
  8
外形図
  6
CONTINUOUS
 62
     3
100
AcDbVertex
100
AcDb2dVertex
 10
1420.25
 20
1805.1
 30
0.0
  0
VERTEX
  5
5E0
100
AcDbEntity
  8
外形図
  6
CONTINUOUS
 62
     3
100
AcDbVertex
100
AcDb2dVertex
 10
1422.0
 20
1804.45
 30
0.0
  0
VERTEX
  5
5E1
100
AcDbEntity
  8
外形図
  6
CONTINUOUS
 62
     3
100
AcDbVertex
100
AcDb2dVertex
 10
1422.65
 20
1802.7
 30
0.0
  0
SEQEND
  5
5E2
100
AcDbEntity
  8
外形図
  6
CONTINUOUS
 62
     3
  0
ARC
  5
5E3
100
AcDbEntity
  8
外形図
  6
CONTINUOUS
 62
     3
100
AcDbCircle
 10
1417.245737
 20
1804.5
 30
0.0
 40
3.0
100
AcDbArc
 50
22.988717
 51
90.0
  0
LINE
  5
5E4
100
AcDbEntity
  8
外形図
  6
CONTINUOUS
 62
     3
100
AcDbLine
 10
1420.007482
 20
1805.67165
 30
0.0
 11
1420.25
 21
1805.1
 31
0.0
  0
LINE
  5
5E5
100
AcDbEntity
  8
外形図
  6
CONTINUOUS
 62
     3
100
AcDbLine
 10
1411.65
 20
1807.5
 30
0.0
 11
1417.245737
 21
1807.5
 31
0.0
  0
POLYLINE
  5
5E6
100
AcDbEntity
  8
外形図
  6
CONTINUOUS
 62
     3
100
AcDb2dPolyline
 66
     1
 10
0.0
 20
0.0
 30
0.0
 70
   128
  0
VERTEX
  5
5E7
100
AcDbEntity
  8
外形図
  6
CONTINUOUS
 62
     3
100
AcDbVertex
100
AcDb2dVertex
 10
1420.25
 20
1624.9
 30
0.0
  0
VERTEX
  5
5E8
100
AcDbEntity
  8
外形図
  6
CONTINUOUS
 62
     3
100
AcDbVertex
100
AcDb2dVertex
 10
1422.0
 20
1625.55
 30
0.0
  0
VERTEX
  5
5E9
100
AcDbEntity
  8
外形図
  6
CONTINUOUS
 62
     3
100
AcDbVertex
100
AcDb2dVertex
 10
1422.65
 20
1627.3
 30
0.0
  0
SEQEND
  5
5EA
100
AcDbEntity
  8
外形図
  6
CONTINUOUS
 62
     3
  0
ARC
  5
5EB
100
AcDbEntity
  8
外形図
  6
CONTINUOUS
 62
     3
100
AcDbCircle
 10
1417.245737
 20
1625.5
 30
0.0
 40
3.0
100
AcDbArc
 50
270.0
 51
337.011283
  0
LINE
  5
5EC
100
AcDbEntity
  8
外形図
  6
CONTINUOUS
 62
     3
100
AcDbLine
 10
1420.007482
 20
1624.32835
 30
0.0
 11
1420.25
 21
1624.9
 31
0.0
  0
LINE
  5
5ED
100
AcDbEntity
  8
外形図
  6
CONTINUOUS
 62
     3
100
AcDbLine
 10
1411.65
 20
1622.5
 30
0.0
 11
1417.245737
 21
1622.5
 31
0.0
  0
LINE
  5
5EE
100
AcDbEntity
  8
外形図
  6
CONTINUOUS
 62
     3
100
AcDbLine
 10
1422.65
 20
1627.3
 30
0.0
 11
1422.65
 21
1802.7
 31
0.0
  0
LINE
  5
5EF
100
AcDbEntity
  8
外形図
  6
CONTINUOUS
 62
     3
100
AcDbLine
 10
1422.65
 20
1763.0
 30
0.0
 11
1428.187749
 21
1763.0
 31
0.0
  0
LINE
  5
5F0
100
AcDbEntity
  8
外形図
  6
CONTINUOUS
 62
     3
100
AcDbLine
 10
1422.65
 20
1667.0
 30
0.0
 11
1428.187749
 21
1667.0
 31
0.0
  0
LINE
  5
5F1
100
AcDbEntity
  8
外形図
  6
CONTINUOUS
 62
     3
100
AcDbLine
 10
1520.65
 20
1807.5
 30
0.0
 11
1515.054263
 21
1807.5
 31
0.0
  0
LINE
  5
5F2
100
AcDbEntity
  8
外形図
  6
CONTINUOUS
 62
     3
100
AcDbLine
 10
1512.292518
 20
1805.67165
 30
0.0
 11
1512.05
 21
1805.1
 31
0.0
  0
ARC
  5
5F3
100
AcDbEntity
  8
外形図
  6
CONTINUOUS
 62
     3
100
AcDbCircle
 10
1515.054263
 20
1804.5
 30
0.0
 40
3.0
100
AcDbArc
 50
90.0
 51
157.011283
  0
POLYLINE
  5
5F4
100
AcDbEntity
  8
外形図
  6
CONTINUOUS
 62
     3
100
AcDb2dPolyline
 66
     1
 10
0.0
 20
0.0
 30
0.0
 70
   128
  0
VERTEX
  5
5F5
100
AcDbEntity
  8
外形図
  6
CONTINUOUS
 62
     3
100
AcDbVertex
100
AcDb2dVertex
 10
1512.05
 20
1805.1
 30
0.0
  0
VERTEX
  5
5F6
100
AcDbEntity
  8
外形図
  6
CONTINUOUS
 62
     3
100
AcDbVertex
100
AcDb2dVertex
 10
1510.3
 20
1804.45
 30
0.0
  0
VERTEX
  5
5F7
100
AcDbEntity
  8
外形図
  6
CONTINUOUS
 62
     3
100
AcDbVertex
100
AcDb2dVertex
 10
1509.65
 20
1802.7
 30
0.0
  0
SEQEND
  5
5F8
100
AcDbEntity
  8
外形図
  6
CONTINUOUS
 62
     3
  0
LINE
  5
5F9
100
AcDbEntity
  8
外形図
  6
CONTINUOUS
 62
     3
100
AcDbLine
 10
1520.65
 20
1622.5
 30
0.0
 11
1515.054263
 21
1622.5
 31
0.0
  0
LINE
  5
5FA
100
AcDbEntity
  8
外形図
  6
CONTINUOUS
 62
     3
100
AcDbLine
 10
1512.292518
 20
1624.32835
 30
0.0
 11
1512.05
 21
1624.9
 31
0.0
  0
ARC
  5
5FB
100
AcDbEntity
  8
外形図
  6
CONTINUOUS
 62
     3
100
AcDbCircle
 10
1515.054263
 20
1625.5
 30
0.0
 40
3.0
100
AcDbArc
 50
202.988717
 51
270.0
  0
POLYLINE
  5
5FC
100
AcDbEntity
  8
外形図
  6
CONTINUOUS
 62
     3
100
AcDb2dPolyline
 66
     1
 10
0.0
 20
0.0
 30
0.0
 70
   128
  0
VERTEX
  5
5FD
100
AcDbEntity
  8
外形図
  6
CONTINUOUS
 62
     3
100
AcDbVertex
100
AcDb2dVertex
 10
1512.05
 20
1624.9
 30
0.0
  0
VERTEX
  5
5FE
100
AcDbEntity
  8
外形図
  6
CONTINUOUS
 62
     3
100
AcDbVertex
100
AcDb2dVertex
 10
1510.3
 20
1625.55
 30
0.0
  0
VERTEX
  5
5FF
100
AcDbEntity
  8
外形図
  6
CONTINUOUS
 62
     3
100
AcDbVertex
100
AcDb2dVertex
 10
1509.65
 20
1627.3
 30
0.0
  0
SEQEND
  5
600
100
AcDbEntity
  8
外形図
  6
CONTINUOUS
 62
     3
  0
LINE
  5
601
100
AcDbEntity
  8
外形図
  6
CONTINUOUS
 62
     3
100
AcDbLine
 10
1509.65
 20
1627.3
 30
0.0
 11
1509.65
 21
1802.7
 31
0.0
  0
LINE
  5
602
100
AcDbEntity
  8
外形図
  6
CONTINUOUS
 62
     3
100
AcDbLine
 10
1509.65
 20
1763.0
 30
0.0
 11
1504.112251
 21
1763.0
 31
0.0
  0
LINE
  5
603
100
AcDbEntity
  8
外形図
  6
CONTINUOUS
 62
     3
100
AcDbLine
 10
1509.65
 20
1667.0
 30
0.0
 11
1504.112251
 21
1667.0
 31
0.0
  0
POLYLINE
  5
604
100
AcDbEntity
  8
外形図
  6
CONTINUOUS
 62
     3
100
AcDb2dPolyline
 66
     1
 10
0.0
 20
0.0
 30
0.0
 70
   128
  0
VERTEX
  5
605
100
AcDbEntity
  8
外形図
  6
CONTINUOUS
 62
     3
100
AcDbVertex
100
AcDb2dVertex
 10
-636.15
 20
1293.225
 30
0.0
  0
VERTEX
  5
606
100
AcDbEntity
  8
外形図
  6
CONTINUOUS
 62
     3
100
AcDbVertex
100
AcDb2dVertex
 10
-634.4
 20
1292.575
 30
0.0
  0
VERTEX
  5
607
100
AcDbEntity
  8
外形図
  6
CONTINUOUS
 62
     3
100
AcDbVertex
100
AcDb2dVertex
 10
-633.75
 20
1290.825
 30
0.0
  0
SEQEND
  5
608
100
AcDbEntity
  8
外形図
  6
CONTINUOUS
 62
     3
  0
ARC
  5
609
100
AcDbEntity
  8
外形図
  6
CONTINUOUS
 62
     3
100
AcDbCircle
 10
-639.154263
 20
1292.625
 30
0.0
 40
3.0
100
AcDbArc
 50
22.988717
 51
90.0
  0
LINE
  5
60A
100
AcDbEntity
  8
外形図
  6
CONTINUOUS
 62
     3
100
AcDbLine
 10
-636.392518
 20
1293.79665
 30
0.0
 11
-636.15
 21
1293.225
 31
0.0
  0
LINE
  5
60B
100
AcDbEntity
  8
外形図
  6
CONTINUOUS
 62
     3
100
AcDbLine
 10
-645.75
 20
1295.625
 30
0.0
 11
-639.154263
 21
1295.625
 31
0.0
  0
POLYLINE
  5
60C
100
AcDbEntity
  8
外形図
  6
CONTINUOUS
 62
     3
100
AcDb2dPolyline
 66
     1
 10
0.0
 20
0.0
 30
0.0
 70
   128
  0
VERTEX
  5
60D
100
AcDbEntity
  8
外形図
  6
CONTINUOUS
 62
     3
100
AcDbVertex
100
AcDb2dVertex
 10
-636.15
 20
1088.025
 30
0.0
  0
VERTEX
  5
60E
100
AcDbEntity
  8
外形図
  6
CONTINUOUS
 62
     3
100
AcDbVertex
100
AcDb2dVertex
 10
-634.4
 20
1088.675
 30
0.0
  0
VERTEX
  5
60F
100
AcDbEntity
  8
外形図
  6
CONTINUOUS
 62
     3
100
AcDbVertex
100
AcDb2dVertex
 10
-633.75
 20
1090.425
 30
0.0
  0
SEQEND
  5
610
100
AcDbEntity
  8
外形図
  6
CONTINUOUS
 62
     3
  0
ARC
  5
611
100
AcDbEntity
  8
外形図
  6
CONTINUOUS
 62
     3
100
AcDbCircle
 10
-639.154263
 20
1088.625
 30
0.0
 40
3.0
100
AcDbArc
 50
270.0
 51
337.011283
  0
LINE
  5
612
100
AcDbEntity
  8
外形図
  6
CONTINUOUS
 62
     3
100
AcDbLine
 10
-636.392518
 20
1087.45335
 30
0.0
 11
-636.15
 21
1088.025
 31
0.0
  0
LINE
  5
613
100
AcDbEntity
  8
外形図
  6
CONTINUOUS
 62
     3
100
AcDbLine
 10
-645.75
 20
1085.625
 30
0.0
 11
-639.154263
 21
1085.625
 31
0.0
  0
LINE
  5
614
100
AcDbEntity
  8
外形図
  6
CONTINUOUS
 62
     3
100
AcDbLine
 10
-633.75
 20
1090.425
 30
0.0
 11
-633.75
 21
1290.825
 31
0.0
  0
ARC
  5
615
100
AcDbEntity
  8
外形図
  6
CONTINUOUS
 62
     3
100
AcDbCircle
 10
-633.349634
 20
1282.8818
 30
0.0
 40
31.257208
100
AcDbArc
 50
269.266091
 51
297.771418
  0
ARC
  5
616
100
AcDbEntity
  8
外形図
  6
CONTINUOUS
 62
     3
100
AcDbCircle
 10
-633.349634
 20
1098.3682
 30
0.0
 40
31.257208
100
AcDbArc
 50
62.228582
 51
90.733909
  0
POLYLINE
  5
617
100
AcDbEntity
  8
外形図
  6
CONTINUOUS
 62
     3
100
AcDb2dPolyline
 66
     1
 10
0.0
 20
0.0
 30
0.0
 70
   128
  0
VERTEX
  5
618
100
AcDbEntity
  8
外形図
  6
CONTINUOUS
 62
     3
100
AcDbVertex
100
AcDb2dVertex
 10
-521.35
 20
1293.225
 30
0.0
  0
VERTEX
  5
619
100
AcDbEntity
  8
外形図
  6
CONTINUOUS
 62
     3
100
AcDbVertex
100
AcDb2dVertex
 10
-523.1
 20
1292.575
 30
0.0
  0
VERTEX
  5
61A
100
AcDbEntity
  8
外形図
  6
CONTINUOUS
 62
     3
100
AcDbVertex
100
AcDb2dVertex
 10
-523.75
 20
1290.825
 30
0.0
  0
SEQEND
  5
61B
100
AcDbEntity
  8
外形図
  6
CONTINUOUS
 62
     3
  0
ARC
  5
61C
100
AcDbEntity
  8
外形図
  6
CONTINUOUS
 62
     3
100
AcDbCircle
 10
-518.345737
 20
1292.625
 30
0.0
 40
3.0
100
AcDbArc
 50
90.0
 51
157.011283
  0
LINE
  5
61D
100
AcDbEntity
  8
外形図
  6
CONTINUOUS
 62
     3
100
AcDbLine
 10
-521.107482
 20
1293.79665
 30
0.0
 11
-521.35
 21
1293.225
 31
0.0
  0
LINE
  5
61E
100
AcDbEntity
  8
外形図
  6
CONTINUOUS
 62
     3
100
AcDbLine
 10
-511.75
 20
1295.625
 30
0.0
 11
-518.345737
 21
1295.625
 31
0.0
  0
POLYLINE
  5
61F
100
AcDbEntity
  8
外形図
  6
CONTINUOUS
 62
     3
100
AcDb2dPolyline
 66
     1
 10
0.0
 20
0.0
 30
0.0
 70
   128
  0
VERTEX
  5
620
100
AcDbEntity
  8
外形図
  6
CONTINUOUS
 62
     3
100
AcDbVertex
100
AcDb2dVertex
 10
-521.35
 20
1088.025
 30
0.0
  0
VERTEX
  5
621
100
AcDbEntity
  8
外形図
  6
CONTINUOUS
 62
     3
100
AcDbVertex
100
AcDb2dVertex
 10
-523.1
 20
1088.675
 30
0.0
  0
VERTEX
  5
622
100
AcDbEntity
  8
外形図
  6
CONTINUOUS
 62
     3
100
AcDbVertex
100
AcDb2dVertex
 10
-523.75
 20
1090.425
 30
0.0
  0
SEQEND
  5
623
100
AcDbEntity
  8
外形図
  6
CONTINUOUS
 62
     3
  0
ARC
  5
624
100
AcDbEntity
  8
外形図
  6
CONTINUOUS
 62
     3
100
AcDbCircle
 10
-518.345737
 20
1088.625
 30
0.0
 40
3.0
100
AcDbArc
 50
202.988717
 51
270.0
  0
LINE
  5
625
100
AcDbEntity
  8
外形図
  6
CONTINUOUS
 62
     3
100
AcDbLine
 10
-521.107482
 20
1087.45335
 30
0.0
 11
-521.35
 21
1088.025
 31
0.0
  0
LINE
  5
626
100
AcDbEntity
  8
外形図
  6
CONTINUOUS
 62
     3
100
AcDbLine
 10
-511.75
 20
1085.625
 30
0.0
 11
-518.345737
 21
1085.625
 31
0.0
  0
LINE
  5
627
100
AcDbEntity
  8
外形図
  6
CONTINUOUS
 62
     3
100
AcDbLine
 10
-523.75
 20
1090.425
 30
0.0
 11
-523.75
 21
1290.825
 31
0.0
  0
ARC
  5
628
100
AcDbEntity
  8
外形図
  6
CONTINUOUS
 62
     3
100
AcDbCircle
 10
-524.150366
 20
1282.8818
 30
0.0
 40
31.257208
100
AcDbArc
 50
242.228582
 51
270.733909
  0
ARC
  5
629
100
AcDbEntity
  8
外形図
  6
CONTINUOUS
 62
     3
100
AcDbCircle
 10
-524.150366
 20
1098.3682
 30
0.0
 40
31.257208
100
AcDbArc
 50
89.266091
 51
117.771418
  0
LINE
  5
62A
100
AcDbEntity
  8
外形図
  6
CONTINUOUS
 62
     3
100
AcDbLine
 10
285.25
 20
1116.625
 30
0.0
 11
295.895647
 21
1116.625
 31
0.0
  0
LINE
  5
62B
100
AcDbEntity
  8
外形図
  6
CONTINUOUS
 62
     3
100
AcDbLine
 10
285.25
 20
1264.625
 30
0.0
 11
295.895647
 21
1264.625
 31
0.0
  0
LINE
  5
62C
100
AcDbEntity
  8
外形図
  6
CONTINUOUS
 62
     3
100
AcDbLine
 10
271.25
 20
1065.625
 30
0.0
 11
279.845737
 21
1065.625
 31
0.0
  0
LINE
  5
62D
100
AcDbEntity
  8
外形図
  6
CONTINUOUS
 62
     3
100
AcDbLine
 10
271.25
 20
1315.625
 30
0.0
 11
279.845737
 21
1315.625
 31
0.0
  0
LINE
  5
62E
100
AcDbEntity
  8
外形図
  6
CONTINUOUS
 62
     3
100
AcDbLine
 10
285.25
 20
1070.425
 30
0.0
 11
285.25
 21
1310.825
 31
0.0
  0
LINE
  5
62F
100
AcDbEntity
  8
外形図
  6
CONTINUOUS
 62
     3
100
AcDbLine
 10
282.607482
 20
1067.45335
 30
0.0
 11
282.85
 21
1068.025
 31
0.0
  0
ARC
  5
630
100
AcDbEntity
  8
外形図
  6
CONTINUOUS
 62
     3
100
AcDbCircle
 10
279.845737
 20
1068.625
 30
0.0
 40
3.0
100
AcDbArc
 50
270.0
 51
337.011283
  0
POLYLINE
  5
631
100
AcDbEntity
  8
外形図
  6
CONTINUOUS
 62
     3
100
AcDb2dPolyline
 66
     1
 10
0.0
 20
0.0
 30
0.0
 70
   128
  0
VERTEX
  5
632
100
AcDbEntity
  8
外形図
  6
CONTINUOUS
 62
     3
100
AcDbVertex
100
AcDb2dVertex
 10
282.85
 20
1068.025
 30
0.0
  0
VERTEX
  5
633
100
AcDbEntity
  8
外形図
  6
CONTINUOUS
 62
     3
100
AcDbVertex
100
AcDb2dVertex
 10
284.6
 20
1068.675
 30
0.0
  0
VERTEX
  5
634
100
AcDbEntity
  8
外形図
  6
CONTINUOUS
 62
     3
100
AcDbVertex
100
AcDb2dVertex
 10
285.25
 20
1070.425
 30
0.0
  0
SEQEND
  5
635
100
AcDbEntity
  8
外形図
  6
CONTINUOUS
 62
     3
  0
LINE
  5
636
100
AcDbEntity
  8
外形図
  6
CONTINUOUS
 62
     3
100
AcDbLine
 10
282.607482
 20
1313.79665
 30
0.0
 11
282.85
 21
1313.225
 31
0.0
  0
ARC
  5
637
100
AcDbEntity
  8
外形図
  6
CONTINUOUS
 62
     3
100
AcDbCircle
 10
279.845737
 20
1312.625
 30
0.0
 40
3.0
100
AcDbArc
 50
22.988717
 51
90.0
  0
POLYLINE
  5
638
100
AcDbEntity
  8
外形図
  6
CONTINUOUS
 62
     3
100
AcDb2dPolyline
 66
     1
 10
0.0
 20
0.0
 30
0.0
 70
   128
  0
VERTEX
  5
639
100
AcDbEntity
  8
外形図
  6
CONTINUOUS
 62
     3
100
AcDbVertex
100
AcDb2dVertex
 10
282.85
 20
1313.225
 30
0.0
  0
VERTEX
  5
63A
100
AcDbEntity
  8
外形図
  6
CONTINUOUS
 62
     3
100
AcDbVertex
100
AcDb2dVertex
 10
284.6
 20
1312.575
 30
0.0
  0
VERTEX
  5
63B
100
AcDbEntity
  8
外形図
  6
CONTINUOUS
 62
     3
100
AcDbVertex
100
AcDb2dVertex
 10
285.25
 20
1310.825
 30
0.0
  0
SEQEND
  5
63C
100
AcDbEntity
  8
外形図
  6
CONTINUOUS
 62
     3
  0
LINE
  5
63D
100
AcDbEntity
  8
外形図
  6
CONTINUOUS
 62
     3
100
AcDbLine
 10
416.25
 20
1116.625
 30
0.0
 11
405.604353
 21
1116.625
 31
0.0
  0
LINE
  5
63E
100
AcDbEntity
  8
外形図
  6
CONTINUOUS
 62
     3
100
AcDbLine
 10
416.25
 20
1264.625
 30
0.0
 11
405.604353
 21
1264.625
 31
0.0
  0
LINE
  5
63F
100
AcDbEntity
  8
外形図
  6
CONTINUOUS
 62
     3
100
AcDbLine
 10
430.25
 20
1065.625
 30
0.0
 11
421.654263
 21
1065.625
 31
0.0
  0
LINE
  5
640
100
AcDbEntity
  8
外形図
  6
CONTINUOUS
 62
     3
100
AcDbLine
 10
430.25
 20
1315.625
 30
0.0
 11
421.654263
 21
1315.625
 31
0.0
  0
LINE
  5
641
100
AcDbEntity
  8
外形図
  6
CONTINUOUS
 62
     3
100
AcDbLine
 10
416.25
 20
1070.425
 30
0.0
 11
416.25
 21
1310.825
 31
0.0
  0
LINE
  5
642
100
AcDbEntity
  8
外形図
  6
CONTINUOUS
 62
     3
100
AcDbLine
 10
418.892518
 20
1067.45335
 30
0.0
 11
418.65
 21
1068.025
 31
0.0
  0
ARC
  5
643
100
AcDbEntity
  8
外形図
  6
CONTINUOUS
 62
     3
100
AcDbCircle
 10
421.654263
 20
1068.625
 30
0.0
 40
3.0
100
AcDbArc
 50
202.988717
 51
270.0
  0
POLYLINE
  5
644
100
AcDbEntity
  8
外形図
  6
CONTINUOUS
 62
     3
100
AcDb2dPolyline
 66
     1
 10
0.0
 20
0.0
 30
0.0
 70
   128
  0
VERTEX
  5
645
100
AcDbEntity
  8
外形図
  6
CONTINUOUS
 62
     3
100
AcDbVertex
100
AcDb2dVertex
 10
418.65
 20
1068.025
 30
0.0
  0
VERTEX
  5
646
100
AcDbEntity
  8
外形図
  6
CONTINUOUS
 62
     3
100
AcDbVertex
100
AcDb2dVertex
 10
416.9
 20
1068.675
 30
0.0
  0
VERTEX
  5
647
100
AcDbEntity
  8
外形図
  6
CONTINUOUS
 62
     3
100
AcDbVertex
100
AcDb2dVertex
 10
416.25
 20
1070.425
 30
0.0
  0
SEQEND
  5
648
100
AcDbEntity
  8
外形図
  6
CONTINUOUS
 62
     3
  0
LINE
  5
649
100
AcDbEntity
  8
外形図
  6
CONTINUOUS
 62
     3
100
AcDbLine
 10
418.892518
 20
1313.79665
 30
0.0
 11
418.65
 21
1313.225
 31
0.0
  0
ARC
  5
64A
100
AcDbEntity
  8
外形図
  6
CONTINUOUS
 62
     3
100
AcDbCircle
 10
421.654263
 20
1312.625
 30
0.0
 40
3.0
100
AcDbArc
 50
90.0
 51
157.011283
  0
POLYLINE
  5
64B
100
AcDbEntity
  8
外形図
  6
CONTINUOUS
 62
     3
100
AcDb2dPolyline
 66
     1
 10
0.0
 20
0.0
 30
0.0
 70
   128
  0
VERTEX
  5
64C
100
AcDbEntity
  8
外形図
  6
CONTINUOUS
 62
     3
100
AcDbVertex
100
AcDb2dVertex
 10
418.65
 20
1313.225
 30
0.0
  0
VERTEX
  5
64D
100
AcDbEntity
  8
外形図
  6
CONTINUOUS
 62
     3
100
AcDbVertex
100
AcDb2dVertex
 10
416.9
 20
1312.575
 30
0.0
  0
VERTEX
  5
64E
100
AcDbEntity
  8
外形図
  6
CONTINUOUS
 62
     3
100
AcDbVertex
100
AcDb2dVertex
 10
416.25
 20
1310.825
 30
0.0
  0
SEQEND
  5
64F
100
AcDbEntity
  8
外形図
  6
CONTINUOUS
 62
     3
  0
POLYLINE
  5
650
100
AcDbEntity
  8
外形図
  6
CONTINUOUS
 62
     3
100
AcDb2dPolyline
 66
     1
 10
0.0
 20
0.0
 30
0.0
 70
   128
  0
VERTEX
  5
651
100
AcDbEntity
  8
外形図
  6
CONTINUOUS
 62
     3
100
AcDbVertex
100
AcDb2dVertex
 10
1203.35
 20
1338.225
 30
0.0
  0
VERTEX
  5
652
100
AcDbEntity
  8
外形図
  6
CONTINUOUS
 62
     3
100
AcDbVertex
100
AcDb2dVertex
 10
1205.1
 20
1337.575
 30
0.0
  0
VERTEX
  5
653
100
AcDbEntity
  8
外形図
  6
CONTINUOUS
 62
     3
100
AcDbVertex
100
AcDb2dVertex
 10
1205.75
 20
1335.825
 30
0.0
  0
SEQEND
  5
654
100
AcDbEntity
  8
外形図
  6
CONTINUOUS
 62
     3
  0
ARC
  5
655
100
AcDbEntity
  8
外形図
  6
CONTINUOUS
 62
     3
100
AcDbCircle
 10
1200.345737
 20
1337.625
 30
0.0
 40
3.0
100
AcDbArc
 50
22.988717
 51
90.0
  0
LINE
  5
656
100
AcDbEntity
  8
外形図
  6
CONTINUOUS
 62
     3
100
AcDbLine
 10
1203.107482
 20
1338.79665
 30
0.0
 11
1203.35
 21
1338.225
 31
0.0
  0
LINE
  5
657
100
AcDbEntity
  8
外形図
  6
CONTINUOUS
 62
     3
100
AcDbLine
 10
1188.25
 20
1340.625
 30
0.0
 11
1200.345737
 21
1340.625
 31
0.0
  0
POLYLINE
  5
658
100
AcDbEntity
  8
外形図
  6
CONTINUOUS
 62
     3
100
AcDb2dPolyline
 66
     1
 10
0.0
 20
0.0
 30
0.0
 70
   128
  0
VERTEX
  5
659
100
AcDbEntity
  8
外形図
  6
CONTINUOUS
 62
     3
100
AcDbVertex
100
AcDb2dVertex
 10
1203.35
 20
1063.025
 30
0.0
  0
VERTEX
  5
65A
100
AcDbEntity
  8
外形図
  6
CONTINUOUS
 62
     3
100
AcDbVertex
100
AcDb2dVertex
 10
1205.1
 20
1063.675
 30
0.0
  0
VERTEX
  5
65B
100
AcDbEntity
  8
外形図
  6
CONTINUOUS
 62
     3
100
AcDbVertex
100
AcDb2dVertex
 10
1205.75
 20
1065.425
 30
0.0
  0
SEQEND
  5
65C
100
AcDbEntity
  8
外形図
  6
CONTINUOUS
 62
     3
  0
ARC
  5
65D
100
AcDbEntity
  8
外形図
  6
CONTINUOUS
 62
     3
100
AcDbCircle
 10
1200.345737
 20
1063.625
 30
0.0
 40
3.0
100
AcDbArc
 50
270.0
 51
337.011283
  0
LINE
  5
65E
100
AcDbEntity
  8
外形図
  6
CONTINUOUS
 62
     3
100
AcDbLine
 10
1203.107482
 20
1062.45335
 30
0.0
 11
1203.35
 21
1063.025
 31
0.0
  0
LINE
  5
65F
100
AcDbEntity
  8
外形図
  6
CONTINUOUS
 62
     3
100
AcDbLine
 10
1188.25
 20
1060.625
 30
0.0
 11
1200.345737
 21
1060.625
 31
0.0
  0
LINE
  5
660
100
AcDbEntity
  8
外形図
  6
CONTINUOUS
 62
     3
100
AcDbLine
 10
1205.75
 20
1065.425
 30
0.0
 11
1205.75
 21
1335.825
 31
0.0
  0
LINE
  5
661
100
AcDbEntity
  8
外形図
  6
CONTINUOUS
 62
     3
100
AcDbLine
 10
1205.75
 20
1287.625
 30
0.0
 11
1214.28789
 21
1287.625
 31
0.0
  0
LINE
  5
662
100
AcDbEntity
  8
外形図
  6
CONTINUOUS
 62
     3
100
AcDbLine
 10
1205.75
 20
1113.625
 30
0.0
 11
1214.28789
 21
1113.625
 31
0.0
  0
POLYLINE
  5
663
100
AcDbEntity
  8
外形図
  6
CONTINUOUS
 62
     3
100
AcDb2dPolyline
 66
     1
 10
0.0
 20
0.0
 30
0.0
 70
   128
  0
VERTEX
  5
664
100
AcDbEntity
  8
外形図
  6
CONTINUOUS
 62
     3
100
AcDbVertex
100
AcDb2dVertex
 10
1357.15
 20
1338.225
 30
0.0
  0
VERTEX
  5
665
100
AcDbEntity
  8
外形図
  6
CONTINUOUS
 62
     3
100
AcDbVertex
100
AcDb2dVertex
 10
1355.4
 20
1337.575
 30
0.0
  0
VERTEX
  5
666
100
AcDbEntity
  8
外形図
  6
CONTINUOUS
 62
     3
100
AcDbVertex
100
AcDb2dVertex
 10
1354.75
 20
1335.825
 30
0.0
  0
SEQEND
  5
667
100
AcDbEntity
  8
外形図
  6
CONTINUOUS
 62
     3
  0
ARC
  5
668
100
AcDbEntity
  8
外形図
  6
CONTINUOUS
 62
     3
100
AcDbCircle
 10
1360.154263
 20
1337.625
 30
0.0
 40
3.0
100
AcDbArc
 50
90.0
 51
157.011283
  0
LINE
  5
669
100
AcDbEntity
  8
外形図
  6
CONTINUOUS
 62
     3
100
AcDbLine
 10
1357.392518
 20
1338.79665
 30
0.0
 11
1357.15
 21
1338.225
 31
0.0
  0
LINE
  5
66A
100
AcDbEntity
  8
外形図
  6
CONTINUOUS
 62
     3
100
AcDbLine
 10
1372.25
 20
1340.625
 30
0.0
 11
1360.154263
 21
1340.625
 31
0.0
  0
POLYLINE
  5
66B
100
AcDbEntity
  8
外形図
  6
CONTINUOUS
 62
     3
100
AcDb2dPolyline
 66
     1
 10
0.0
 20
0.0
 30
0.0
 70
   128
  0
VERTEX
  5
66C
100
AcDbEntity
  8
外形図
  6
CONTINUOUS
 62
     3
100
AcDbVertex
100
AcDb2dVertex
 10
1357.15
 20
1063.025
 30
0.0
  0
VERTEX
  5
66D
100
AcDbEntity
  8
外形図
  6
CONTINUOUS
 62
     3
100
AcDbVertex
100
AcDb2dVertex
 10
1355.4
 20
1063.675
 30
0.0
  0
VERTEX
  5
66E
100
AcDbEntity
  8
外形図
  6
CONTINUOUS
 62
     3
100
AcDbVertex
100
AcDb2dVertex
 10
1354.75
 20
1065.425
 30
0.0
  0
SEQEND
  5
66F
100
AcDbEntity
  8
外形図
  6
CONTINUOUS
 62
     3
  0
ARC
  5
670
100
AcDbEntity
  8
外形図
  6
CONTINUOUS
 62
     3
100
AcDbCircle
 10
1360.154263
 20
1063.625
 30
0.0
 40
3.0
100
AcDbArc
 50
202.988717
 51
270.0
  0
LINE
  5
671
100
AcDbEntity
  8
外形図
  6
CONTINUOUS
 62
     3
100
AcDbLine
 10
1357.392518
 20
1062.45335
 30
0.0
 11
1357.15
 21
1063.025
 31
0.0
  0
LINE
  5
672
100
AcDbEntity
  8
外形図
  6
CONTINUOUS
 62
     3
100
AcDbLine
 10
1372.25
 20
1060.625
 30
0.0
 11
1360.154263
 21
1060.625
 31
0.0
  0
LINE
  5
673
100
AcDbEntity
  8
外形図
  6
CONTINUOUS
 62
     3
100
AcDbLine
 10
1354.75
 20
1065.425
 30
0.0
 11
1354.75
 21
1335.825
 31
0.0
  0
LINE
  5
674
100
AcDbEntity
  8
外形図
  6
CONTINUOUS
 62
     3
100
AcDbLine
 10
1354.75
 20
1287.625
 30
0.0
 11
1346.21211
 21
1287.625
 31
0.0
  0
LINE
  5
675
100
AcDbEntity
  8
外形図
  6
CONTINUOUS
 62
     3
100
AcDbLine
 10
1354.75
 20
1113.625
 30
0.0
 11
1346.21211
 21
1113.625
 31
0.0
  0
POLYLINE
  5
676
100
AcDbEntity
  8
外形図
  6
CONTINUOUS
 62
     3
100
AcDb2dPolyline
 66
     1
 10
0.0
 20
0.0
 30
0.0
 70
   128
  0
VERTEX
  5
677
100
AcDbEntity
  8
外形図
  6
CONTINUOUS
 62
     3
100
AcDbVertex
100
AcDb2dVertex
 10
-654.65
 20
604.475
 30
0.0
  0
VERTEX
  5
678
100
AcDbEntity
  8
外形図
  6
CONTINUOUS
 62
     3
100
AcDbVertex
100
AcDb2dVertex
 10
-652.9
 20
603.825
 30
0.0
  0
VERTEX
  5
679
100
AcDbEntity
  8
外形図
  6
CONTINUOUS
 62
     3
100
AcDbVertex
100
AcDb2dVertex
 10
-652.25
 20
602.075
 30
0.0
  0
SEQEND
  5
67A
100
AcDbEntity
  8
外形図
  6
CONTINUOUS
 62
     3
  0
ARC
  5
67B
100
AcDbEntity
  8
外形図
  6
CONTINUOUS
 62
     3
100
AcDbCircle
 10
-657.654263
 20
603.875
 30
0.0
 40
3.0
100
AcDbArc
 50
22.988717
 51
90.0
  0
LINE
  5
67C
100
AcDbEntity
  8
外形図
  6
CONTINUOUS
 62
     3
100
AcDbLine
 10
-654.892518
 20
605.04665
 30
0.0
 11
-654.65
 21
604.475
 31
0.0
  0
LINE
  5
67D
100
AcDbEntity
  8
外形図
  6
CONTINUOUS
 62
     3
100
AcDbLine
 10
-670.75
 20
606.875
 30
0.0
 11
-657.654263
 21
606.875
 31
0.0
  0
POLYLINE
  5
67E
100
AcDbEntity
  8
外形図
  6
CONTINUOUS
 62
     3
100
AcDb2dPolyline
 66
     1
 10
0.0
 20
0.0
 30
0.0
 70
   128
  0
VERTEX
  5
67F
100
AcDbEntity
  8
外形図
  6
CONTINUOUS
 62
     3
100
AcDbVertex
100
AcDb2dVertex
 10
-654.65
 20
279.275
 30
0.0
  0
VERTEX
  5
680
100
AcDbEntity
  8
外形図
  6
CONTINUOUS
 62
     3
100
AcDbVertex
100
AcDb2dVertex
 10
-652.9
 20
279.925
 30
0.0
  0
VERTEX
  5
681
100
AcDbEntity
  8
外形図
  6
CONTINUOUS
 62
     3
100
AcDbVertex
100
AcDb2dVertex
 10
-652.25
 20
281.675
 30
0.0
  0
SEQEND
  5
682
100
AcDbEntity
  8
外形図
  6
CONTINUOUS
 62
     3
  0
ARC
  5
683
100
AcDbEntity
  8
外形図
  6
CONTINUOUS
 62
     3
100
AcDbCircle
 10
-657.654263
 20
279.875
 30
0.0
 40
3.0
100
AcDbArc
 50
270.0
 51
337.011283
  0
LINE
  5
684
100
AcDbEntity
  8
外形図
  6
CONTINUOUS
 62
     3
100
AcDbLine
 10
-654.892518
 20
278.70335
 30
0.0
 11
-654.65
 21
279.275
 31
0.0
  0
LINE
  5
685
100
AcDbEntity
  8
外形図
  6
CONTINUOUS
 62
     3
100
AcDbLine
 10
-670.75
 20
276.875
 30
0.0
 11
-657.654263
 21
276.875
 31
0.0
  0
LINE
  5
686
100
AcDbEntity
  8
外形図
  6
CONTINUOUS
 62
     3
100
AcDbLine
 10
-652.25
 20
281.675
 30
0.0
 11
-652.25
 21
602.075
 31
0.0
  0
LINE
  5
687
100
AcDbEntity
  8
外形図
  6
CONTINUOUS
 62
     3
100
AcDbLine
 10
-652.25
 20
553.875
 30
0.0
 11
-639.413004
 21
553.875
 31
0.0
  0
LINE
  5
688
100
AcDbEntity
  8
外形図
  6
CONTINUOUS
 62
     3
100
AcDbLine
 10
-652.25
 20
329.875
 30
0.0
 11
-639.413004
 21
329.875
 31
0.0
  0
POLYLINE
  5
689
100
AcDbEntity
  8
外形図
  6
CONTINUOUS
 62
     3
100
AcDb2dPolyline
 66
     1
 10
0.0
 20
0.0
 30
0.0
 70
   128
  0
VERTEX
  5
68A
100
AcDbEntity
  8
外形図
  6
CONTINUOUS
 62
     3
100
AcDbVertex
100
AcDb2dVertex
 10
-502.85
 20
604.475
 30
0.0
  0
VERTEX
  5
68B
100
AcDbEntity
  8
外形図
  6
CONTINUOUS
 62
     3
100
AcDbVertex
100
AcDb2dVertex
 10
-504.6
 20
603.825
 30
0.0
  0
VERTEX
  5
68C
100
AcDbEntity
  8
外形図
  6
CONTINUOUS
 62
     3
100
AcDbVertex
100
AcDb2dVertex
 10
-505.25
 20
602.075
 30
0.0
  0
SEQEND
  5
68D
100
AcDbEntity
  8
外形図
  6
CONTINUOUS
 62
     3
  0
ARC
  5
68E
100
AcDbEntity
  8
外形図
  6
CONTINUOUS
 62
     3
100
AcDbCircle
 10
-499.845737
 20
603.875
 30
0.0
 40
3.0
100
AcDbArc
 50
90.0
 51
157.011283
  0
LINE
  5
68F
100
AcDbEntity
  8
外形図
  6
CONTINUOUS
 62
     3
100
AcDbLine
 10
-502.607482
 20
605.04665
 30
0.0
 11
-502.85
 21
604.475
 31
0.0
  0
LINE
  5
690
100
AcDbEntity
  8
外形図
  6
CONTINUOUS
 62
     3
100
AcDbLine
 10
-486.75
 20
606.875
 30
0.0
 11
-499.845737
 21
606.875
 31
0.0
  0
POLYLINE
  5
691
100
AcDbEntity
  8
外形図
  6
CONTINUOUS
 62
     3
100
AcDb2dPolyline
 66
     1
 10
0.0
 20
0.0
 30
0.0
 70
   128
  0
VERTEX
  5
692
100
AcDbEntity
  8
外形図
  6
CONTINUOUS
 62
     3
100
AcDbVertex
100
AcDb2dVertex
 10
-502.85
 20
279.275
 30
0.0
  0
VERTEX
  5
693
100
AcDbEntity
  8
外形図
  6
CONTINUOUS
 62
     3
100
AcDbVertex
100
AcDb2dVertex
 10
-504.6
 20
279.925
 30
0.0
  0
VERTEX
  5
694
100
AcDbEntity
  8
外形図
  6
CONTINUOUS
 62
     3
100
AcDbVertex
100
AcDb2dVertex
 10
-505.25
 20
281.675
 30
0.0
  0
SEQEND
  5
695
100
AcDbEntity
  8
外形図
  6
CONTINUOUS
 62
     3
  0
ARC
  5
696
100
AcDbEntity
  8
外形図
  6
CONTINUOUS
 62
     3
100
AcDbCircle
 10
-499.845737
 20
279.875
 30
0.0
 40
3.0
100
AcDbArc
 50
202.988717
 51
270.0
  0
LINE
  5
697
100
AcDbEntity
  8
外形図
  6
CONTINUOUS
 62
     3
100
AcDbLine
 10
-502.607482
 20
278.70335
 30
0.0
 11
-502.85
 21
279.275
 31
0.0
  0
LINE
  5
698
100
AcDbEntity
  8
外形図
  6
CONTINUOUS
 62
     3
100
AcDbLine
 10
-486.75
 20
276.875
 30
0.0
 11
-499.845737
 21
276.875
 31
0.0
  0
LINE
  5
699
100
AcDbEntity
  8
外形図
  6
CONTINUOUS
 62
     3
100
AcDbLine
 10
-505.25
 20
281.675
 30
0.0
 11
-505.25
 21
602.075
 31
0.0
  0
LINE
  5
69A
100
AcDbEntity
  8
外形図
  6
CONTINUOUS
 62
     3
100
AcDbLine
 10
-505.25
 20
553.875
 30
0.0
 11
-518.086996
 21
553.875
 31
0.0
  0
LINE
  5
69B
100
AcDbEntity
  8
外形図
  6
CONTINUOUS
 62
     3
100
AcDbLine
 10
-505.25
 20
329.875
 30
0.0
 11
-518.086996
 21
329.875
 31
0.0
  0
POLYLINE
  5
69C
100
AcDbEntity
  8
外形図
  6
CONTINUOUS
 62
     3
100
AcDb2dPolyline
 66
     1
 10
0.0
 20
0.0
 30
0.0
 70
   128
  0
VERTEX
  5
69D
100
AcDbEntity
  8
外形図
  6
CONTINUOUS
 62
     3
100
AcDbVertex
100
AcDb2dVertex
 10
252.35
 20
639.475
 30
0.0
  0
VERTEX
  5
69E
100
AcDbEntity
  8
外形図
  6
CONTINUOUS
 62
     3
100
AcDbVertex
100
AcDb2dVertex
 10
254.1
 20
638.825
 30
0.0
  0
VERTEX
  5
69F
100
AcDbEntity
  8
外形図
  6
CONTINUOUS
 62
     3
100
AcDbVertex
100
AcDb2dVertex
 10
254.75
 20
637.075
 30
0.0
  0
SEQEND
  5
6A0
100
AcDbEntity
  8
外形図
  6
CONTINUOUS
 62
     3
  0
ARC
  5
6A1
100
AcDbEntity
  8
外形図
  6
CONTINUOUS
 62
     3
100
AcDbCircle
 10
249.345737
 20
638.875
 30
0.0
 40
3.0
100
AcDbArc
 50
22.988717
 51
90.0
  0
LINE
  5
6A2
100
AcDbEntity
  8
外形図
  6
CONTINUOUS
 62
     3
100
AcDbLine
 10
252.107482
 20
640.04665
 30
0.0
 11
252.35
 21
639.475
 31
0.0
  0
POLYLINE
  5
6A3
100
AcDbEntity
  8
外形図
  6
CONTINUOUS
 62
     3
100
AcDb2dPolyline
 66
     1
 10
0.0
 20
0.0
 30
0.0
 70
   128
  0
VERTEX
  5
6A4
100
AcDbEntity
  8
外形図
  6
CONTINUOUS
 62
     3
100
AcDbVertex
100
AcDb2dVertex
 10
252.35
 20
244.275
 30
0.0
  0
VERTEX
  5
6A5
100
AcDbEntity
  8
外形図
  6
CONTINUOUS
 62
     3
100
AcDbVertex
100
AcDb2dVertex
 10
254.1
 20
244.925
 30
0.0
  0
VERTEX
  5
6A6
100
AcDbEntity
  8
外形図
  6
CONTINUOUS
 62
     3
100
AcDbVertex
100
AcDb2dVertex
 10
254.75
 20
246.675
 30
0.0
  0
SEQEND
  5
6A7
100
AcDbEntity
  8
外形図
  6
CONTINUOUS
 62
     3
  0
ARC
  5
6A8
100
AcDbEntity
  8
外形図
  6
CONTINUOUS
 62
     3
100
AcDbCircle
 10
249.345737
 20
244.875
 30
0.0
 40
3.0
100
AcDbArc
 50
270.0
 51
337.011283
  0
LINE
  5
6A9
100
AcDbEntity
  8
外形図
  6
CONTINUOUS
 62
     3
100
AcDbLine
 10
252.107482
 20
243.70335
 30
0.0
 11
252.35
 21
244.275
 31
0.0
  0
LINE
  5
6AA
100
AcDbEntity
  8
外形図
  6
CONTINUOUS
 62
     3
100
AcDbLine
 10
233.75
 20
641.875
 30
0.0
 11
249.345737
 21
641.875
 31
0.0
  0
LINE
  5
6AB
100
AcDbEntity
  8
外形図
  6
CONTINUOUS
 62
     3
100
AcDbLine
 10
233.75
 20
241.875
 30
0.0
 11
249.345737
 21
241.875
 31
0.0
  0
LINE
  5
6AC
100
AcDbEntity
  8
外形図
  6
CONTINUOUS
 62
     3
100
AcDbLine
 10
254.75
 20
246.675
 30
0.0
 11
254.75
 21
637.075
 31
0.0
  0
LINE
  5
6AD
100
AcDbEntity
  8
外形図
  6
CONTINUOUS
 62
     3
100
AcDbLine
 10
254.75
 20
580.875
 30
0.0
 11
281.75
 21
580.875
 31
0.0
  0
LINE
  5
6AE
100
AcDbEntity
  8
外形図
  6
CONTINUOUS
 62
     3
100
AcDbLine
 10
254.75
 20
302.875
 30
0.0
 11
281.75
 21
302.875
 31
0.0
  0
POLYLINE
  5
6AF
100
AcDbEntity
  8
外形図
  6
CONTINUOUS
 62
     3
100
AcDb2dPolyline
 66
     1
 10
0.0
 20
0.0
 30
0.0
 70
   128
  0
VERTEX
  5
6B0
100
AcDbEntity
  8
外形図
  6
CONTINUOUS
 62
     3
100
AcDbVertex
100
AcDb2dVertex
 10
449.15
 20
639.475
 30
0.0
  0
VERTEX
  5
6B1
100
AcDbEntity
  8
外形図
  6
CONTINUOUS
 62
     3
100
AcDbVertex
100
AcDb2dVertex
 10
447.4
 20
638.825
 30
0.0
  0
VERTEX
  5
6B2
100
AcDbEntity
  8
外形図
  6
CONTINUOUS
 62
     3
100
AcDbVertex
100
AcDb2dVertex
 10
446.75
 20
637.075
 30
0.0
  0
SEQEND
  5
6B3
100
AcDbEntity
  8
外形図
  6
CONTINUOUS
 62
     3
  0
ARC
  5
6B4
100
AcDbEntity
  8
外形図
  6
CONTINUOUS
 62
     3
100
AcDbCircle
 10
452.154263
 20
638.875
 30
0.0
 40
3.0
100
AcDbArc
 50
90.0
 51
157.011283
  0
LINE
  5
6B5
100
AcDbEntity
  8
外形図
  6
CONTINUOUS
 62
     3
100
AcDbLine
 10
449.392518
 20
640.04665
 30
0.0
 11
449.15
 21
639.475
 31
0.0
  0
POLYLINE
  5
6B6
100
AcDbEntity
  8
外形図
  6
CONTINUOUS
 62
     3
100
AcDb2dPolyline
 66
     1
 10
0.0
 20
0.0
 30
0.0
 70
   128
  0
VERTEX
  5
6B7
100
AcDbEntity
  8
外形図
  6
CONTINUOUS
 62
     3
100
AcDbVertex
100
AcDb2dVertex
 10
449.15
 20
244.275
 30
0.0
  0
VERTEX
  5
6B8
100
AcDbEntity
  8
外形図
  6
CONTINUOUS
 62
     3
100
AcDbVertex
100
AcDb2dVertex
 10
447.4
 20
244.925
 30
0.0
  0
VERTEX
  5
6B9
100
AcDbEntity
  8
外形図
  6
CONTINUOUS
 62
     3
100
AcDbVertex
100
AcDb2dVertex
 10
446.75
 20
246.675
 30
0.0
  0
SEQEND
  5
6BA
100
AcDbEntity
  8
外形図
  6
CONTINUOUS
 62
     3
  0
ARC
  5
6BB
100
AcDbEntity
  8
外形図
  6
CONTINUOUS
 62
     3
100
AcDbCircle
 10
452.154263
 20
244.875
 30
0.0
 40
3.0
100
AcDbArc
 50
202.988717
 51
270.0
  0
LINE
  5
6BC
100
AcDbEntity
  8
外形図
  6
CONTINUOUS
 62
     3
100
AcDbLine
 10
449.392518
 20
243.70335
 30
0.0
 11
449.15
 21
244.275
 31
0.0
  0
LINE
  5
6BD
100
AcDbEntity
  8
外形図
  6
CONTINUOUS
 62
     3
100
AcDbLine
 10
467.75
 20
641.875
 30
0.0
 11
452.154263
 21
641.875
 31
0.0
  0
LINE
  5
6BE
100
AcDbEntity
  8
外形図
  6
CONTINUOUS
 62
     3
100
AcDbLine
 10
467.75
 20
241.875
 30
0.0
 11
452.154263
 21
241.875
 31
0.0
  0
LINE
  5
6BF
100
AcDbEntity
  8
外形図
  6
CONTINUOUS
 62
     3
100
AcDbLine
 10
446.75
 20
246.675
 30
0.0
 11
446.75
 21
637.075
 31
0.0
  0
LINE
  5
6C0
100
AcDbEntity
  8
外形図
  6
CONTINUOUS
 62
     3
100
AcDbLine
 10
446.75
 20
580.875
 30
0.0
 11
419.75
 21
580.875
 31
0.0
  0
LINE
  5
6C1
100
AcDbEntity
  8
外形図
  6
CONTINUOUS
 62
     3
100
AcDbLine
 10
446.75
 20
302.875
 30
0.0
 11
419.75
 21
302.875
 31
0.0
  0
LINE
  5
6C2
100
AcDbEntity
  8
外形図
  6
CONTINUOUS
 62
     3
100
AcDbLine
 10
1376.75
 20
605.875
 30
0.0
 11
1347.570131
 21
605.875
 31
0.0
  0
LINE
  5
6C3
100
AcDbEntity
  8
外形図
  6
CONTINUOUS
 62
     3
100
AcDbLine
 10
1376.75
 20
277.875
 30
0.0
 11
1347.570131
 21
277.875
 31
0.0
  0
LINE
  5
6C4
100
AcDbEntity
  8
外形図
  6
CONTINUOUS
 62
     3
100
AcDbLine
 10
1183.75
 20
605.875
 30
0.0
 11
1212.929869
 21
605.875
 31
0.0
  0
LINE
  5
6C5
100
AcDbEntity
  8
外形図
  6
CONTINUOUS
 62
     3
100
AcDbLine
 10
1183.75
 20
277.875
 30
0.0
 11
1212.929869
 21
277.875
 31
0.0
  0
LINE
  5
6C6
100
AcDbEntity
  8
外形図
  6
CONTINUOUS
 62
     3
100
AcDbLine
 10
1183.75
 20
277.85413
 30
0.0
 11
1183.75
 21
605.89587
 31
0.0
  0
LINE
  5
6C7
100
AcDbEntity
  8
外形図
  6
CONTINUOUS
 62
     3
100
AcDbLine
 10
1376.75
 20
277.85413
 30
0.0
 11
1376.75
 21
605.89587
 31
0.0
  0
LINE
  5
6C8
100
AcDbEntity
  8
外形図
  6
CONTINUOUS
 62
     3
100
AcDbLine
 10
1376.75
 20
619.85413
 30
0.0
 11
1376.75
 21
661.875
 31
0.0
  0
LINE
  5
6C9
100
AcDbEntity
  8
外形図
  6
CONTINUOUS
 62
     3
100
AcDbLine
 10
1399.25
 20
664.375
 30
0.0
 11
1383.25
 21
664.375
 31
0.0
  0
LINE
  5
6CA
100
AcDbEntity
  8
外形図
  6
CONTINUOUS
 62
     3
100
AcDbLine
 10
1161.25
 20
664.375
 30
0.0
 11
1177.25
 21
664.375
 31
0.0
  0
LINE
  5
6CB
100
AcDbEntity
  8
外形図
  6
CONTINUOUS
 62
     3
100
AcDbLine
 10
1161.25
 20
219.375
 30
0.0
 11
1177.25
 21
219.375
 31
0.0
  0
LINE
  5
6CC
100
AcDbEntity
  8
外形図
  6
CONTINUOUS
 62
     3
100
AcDbLine
 10
1399.25
 20
219.375
 30
0.0
 11
1383.25
 21
219.375
 31
0.0
  0
LINE
  5
6CD
100
AcDbEntity
  8
外形図
  6
CONTINUOUS
 62
     3
100
AcDbLine
 10
1183.75
 20
221.875
 30
0.0
 11
1183.75
 21
263.89587
 31
0.0
  0
LINE
  5
6CE
100
AcDbEntity
  8
外形図
  6
CONTINUOUS
 62
     3
100
AcDbLine
 10
1376.75
 20
221.875
 30
0.0
 11
1376.75
 21
263.89587
 31
0.0
  0
LINE
  5
6CF
100
AcDbEntity
  8
外形図
  6
CONTINUOUS
 62
     3
100
AcDbLine
 10
1400.25
 20
663.375
 30
0.0
 11
1400.25
 21
220.375
 31
0.0
  0
LINE
  5
6D0
100
AcDbEntity
  8
外形図
  6
CONTINUOUS
 62
     3
100
AcDbLine
 10
1160.25
 20
663.375
 30
0.0
 11
1160.25
 21
220.375
 31
0.0
  0
LINE
  5
6D1
100
AcDbEntity
  8
外形図
  6
CONTINUOUS
 62
     3
100
AcDbLine
 10
1183.75
 20
619.85413
 30
0.0
 11
1183.75
 21
661.875
 31
0.0
  0
ENDSEC
  0
SECTION
  2
OBJECTS
  0
DICTIONARY
  5
19
100
AcDbDictionary
  3
ACAD_GROUP
350
1A
  3
ACAD_MLINESTYLE
350
1B
  0
DICTIONARY
  5
1A
102
{ACAD_REACTORS
330
19
102
}
100
AcDbDictionary
  0
DICTIONARY
  5
1B
102
{ACAD_REACTORS
330
19
102
}
100
AcDbDictionary
  3
STANDARD
350
1C
  0
MLINESTYLE
  5
1C
102
{ACAD_REACTORS
330
1B
102
}
100
AcDbMlineStyle
  2
Standard
 70
     0
  3

 62
     0
 51
90.0
 52
90.0
 71
     2
 49
0.5
 62
   256
  6
ByLayer
 49
-0.5
 62
   256
  6
ByLayer
  0
ENDSEC
  0
EOF
